ISO-10303-21;
HEADER;
FILE_DESCRIPTION(('Open CASCADE Model'),'2;1');
FILE_NAME('Open CASCADE Shape Model','2024-12-02T17:32:23',('Author'),(
    'Open CASCADE'),'Open CASCADE STEP processor 7.5','Open CASCADE 7.5'
  ,'Unknown');
FILE_SCHEMA(('CONFIG_CONTROL_DESIGN'));
ENDSEC;
DATA;
#1 = APPLICATION_PROTOCOL_DEFINITION('international standard',
  'config_control_design',1994,#2);
#2 = APPLICATION_CONTEXT(
'configuration controlled 3D designs of mechanical parts and assemblies'
  );
#3 = SHAPE_DEFINITION_REPRESENTATION(#4,#10);
#4 = PRODUCT_DEFINITION_SHAPE('','',#5);
#5 = PRODUCT_DEFINITION('design','',#6,#9);
#6 = PRODUCT_DEFINITION_FORMATION_WITH_SPECIFIED_SOURCE('','',#7,
  .NOT_KNOWN.);
#7 = PRODUCT('Open CASCADE STEP translator 7.5 4339',
  'Open CASCADE STEP translator 7.5 4339','',(#8));
#8 = MECHANICAL_CONTEXT('',#2,'mechanical');
#9 = DESIGN_CONTEXT('',#2,'design');
#10 = ADVANCED_BREP_SHAPE_REPRESENTATION('',(#11,#15),#288);
#11 = AXIS2_PLACEMENT_3D('',#12,#13,#14);
#12 = CARTESIAN_POINT('',(0.,0.,0.));
#13 = DIRECTION('',(0.,0.,1.));
#14 = DIRECTION('',(1.,0.,-0.));
#15 = MANIFOLD_SOLID_BREP('',#16);
#16 = CLOSED_SHELL('',(#17,#141,#246,#283));
#17 = ADVANCED_FACE('',(#18),#35,.T.);
#18 = FACE_BOUND('',#19,.T.);
#19 = EDGE_LOOP('',(#20,#91));
#20 = ORIENTED_EDGE('',*,*,#21,.T.);
#21 = EDGE_CURVE('',#22,#24,#26,.T.);
#22 = VERTEX_POINT('',#23);
#23 = CARTESIAN_POINT('',(1.00396045049,-0.749104008079,
    -5.60635701792E-03));
#24 = VERTEX_POINT('',#25);
#25 = CARTESIAN_POINT('',(-1.002645492554,-0.743524735173,
    9.974053245969E-04));
#26 = SURFACE_CURVE('',#27,(#34,#64),.PCURVE_S1.);
#27 = B_SPLINE_CURVE_WITH_KNOTS('',5,(#28,#29,#30,#31,#32,#33),
  .UNSPECIFIED.,.F.,.F.,(6,6),(0.,1.),.PIECEWISE_BEZIER_KNOTS.);
#28 = CARTESIAN_POINT('',(1.00396045049,-0.749104008079,
    -5.60635701792E-03));
#29 = CARTESIAN_POINT('',(0.956445719148,-0.739642421145,0.547416790016)
  );
#30 = CARTESIAN_POINT('',(0.179130009135,-0.754579712813,0.834967045257)
  );
#31 = CARTESIAN_POINT('',(-0.169228281921,-0.751043200701,0.817545698115
    ));
#32 = CARTESIAN_POINT('',(-0.961357430334,-0.740559525883,0.560311511388
    ));
#33 = CARTESIAN_POINT('',(-1.002645492554,-0.743524735173,
    9.974053245969E-04));
#34 = PCURVE('',#35,#52);
#35 = B_SPLINE_SURFACE_WITH_KNOTS('',3,3,(
    (#36,#37,#38,#39)
    ,(#40,#41,#42,#43)
    ,(#44,#45,#46,#47)
    ,(#48,#49,#50,#51
    )),.UNSPECIFIED.,.F.,.F.,.F.,(4,4),(4,4),(0.,1.),(0.,1.),
  .PIECEWISE_BEZIER_KNOTS.);
#36 = CARTESIAN_POINT('',(-1.056338906288,-0.747852623463,0.627145469189
    ));
#37 = CARTESIAN_POINT('',(-0.351529865757,-0.74455263074,0.634925785842)
  );
#38 = CARTESIAN_POINT('',(0.349807537494,-0.743588688371,0.635250109701)
  );
#39 = CARTESIAN_POINT('',(1.054989218712,-0.745921432972,0.627145469189)
  );
#40 = CARTESIAN_POINT('',(-1.052888300398,-0.752432424265,0.222907835505
    ));
#41 = CARTESIAN_POINT('',(-0.353432278552,-0.74560026854,0.208225805866)
  );
#42 = CARTESIAN_POINT('',(0.34354265368,-0.75574327544,0.223595297974));
#43 = CARTESIAN_POINT('',(1.051064673757,-0.748514254407,0.2240042227));
#44 = CARTESIAN_POINT('',(-1.056463864731,-0.749505217736,-0.20283722054
    ));
#45 = CARTESIAN_POINT('',(-0.353029085842,-0.742069243833,
    -0.179043837608));
#46 = CARTESIAN_POINT('',(0.360128221717,-0.753695566173,-0.192775096783
    ));
#47 = CARTESIAN_POINT('',(1.044446610296,-0.744818825532,-0.201475872468
    ));
#48 = CARTESIAN_POINT('',(-1.054385781288,-0.747597038746,
    -0.605276405811));
#49 = CARTESIAN_POINT('',(-0.35327491971,-0.750970543845,-0.60812169046)
  );
#50 = CARTESIAN_POINT('',(0.345386565946,-0.739888298511,-0.602682266));
#51 = CARTESIAN_POINT('',(1.056942343712,-0.747045278549,-0.605276405811
    ));
#52 = DEFINITIONAL_REPRESENTATION('',(#53),#63);
#53 = B_SPLINE_CURVE_WITH_KNOTS('',8,(#54,#55,#56,#57,#58,#59,#60,#61,
    #62),.UNSPECIFIED.,.F.,.F.,(9,9),(0.,1.),.PIECEWISE_BEZIER_KNOTS.);
#54 = CARTESIAN_POINT('',(0.513728360943,0.97814991328));
#55 = CARTESIAN_POINT('',(0.235871727181,0.963370933992));
#56 = CARTESIAN_POINT('',(0.141136988545,0.828753723439));
#57 = CARTESIAN_POINT('',(-0.534943585206,0.653211666693));
#58 = CARTESIAN_POINT('',(0.616615097731,0.499430861163));
#59 = CARTESIAN_POINT('',(-0.525705507925,0.353874165329));
#60 = CARTESIAN_POINT('',(0.134459579302,0.171249961548));
#61 = CARTESIAN_POINT('',(0.226425060745,3.72214420629E-02));
#62 = CARTESIAN_POINT('',(0.507703784966,2.481625211159E-02));
#63 = ( GEOMETRIC_REPRESENTATION_CONTEXT(2) 
PARAMETRIC_REPRESENTATION_CONTEXT() REPRESENTATION_CONTEXT('2D SPACE',''
  ) );
#64 = PCURVE('',#65,#82);
#65 = B_SPLINE_SURFACE_WITH_KNOTS('',3,3,(
    (#66,#67,#68,#69)
    ,(#70,#71,#72,#73)
    ,(#74,#75,#76,#77)
    ,(#78,#79,#80,#81
    )),.UNSPECIFIED.,.F.,.F.,.F.,(4,4),(4,4),(0.,1.),(0.,1.),
  .PIECEWISE_BEZIER_KNOTS.);
#66 = CARTESIAN_POINT('',(-1.054357051849,-0.773777604103,
    -5.669751763344E-02));
#67 = CARTESIAN_POINT('',(-1.067617197938,-0.257944357768,
    -6.242376996226E-02));
#68 = CARTESIAN_POINT('',(-1.054986394513,0.280582688741,
    -5.200187920415E-02));
#69 = CARTESIAN_POINT('',(-1.062169551849,0.791652083397,
    -5.059400200844E-02));
#70 = CARTESIAN_POINT('',(-0.946712148744,-0.77785588787,0.86183738165)
  );
#71 = CARTESIAN_POINT('',(-0.912528753042,-0.254077405378,0.894637717502
    ));
#72 = CARTESIAN_POINT('',(-0.916919418616,0.261838286027,0.845024482198)
  );
#73 = CARTESIAN_POINT('',(-0.923552171874,0.7927141834,0.877841008828));
#74 = CARTESIAN_POINT('',(0.946743900097,-0.80185941997,0.889397337298)
  );
#75 = CARTESIAN_POINT('',(0.933084543509,-0.267606199149,0.881489844115)
  );
#76 = CARTESIAN_POINT('',(0.922544025638,0.232804648895,0.895200295055)
  );
#77 = CARTESIAN_POINT('',(0.925380335845,0.759798401727,0.874457078193)
  );
#78 = CARTESIAN_POINT('',(1.058924198151,-0.780125260353,
    -6.280103325844E-02));
#79 = CARTESIAN_POINT('',(1.056524724215,-0.273320885846,
    -6.353498604551E-02));
#80 = CARTESIAN_POINT('',(1.049413263253,0.262395702846,
    -5.146071620797E-02));
#81 = CARTESIAN_POINT('',(1.054041385651,0.777980208397,
    -5.620923638344E-02));
#82 = DEFINITIONAL_REPRESENTATION('',(#83),#90);
#83 = B_SPLINE_CURVE_WITH_KNOTS('',5,(#84,#85,#86,#87,#88,#89),
  .UNSPECIFIED.,.F.,.F.,(6,6),(0.,1.),.PIECEWISE_BEZIER_KNOTS.);
#84 = CARTESIAN_POINT('',(0.976054807292,2.146860645455E-02));
#85 = CARTESIAN_POINT('',(0.776245108891,3.435692122956E-02));
#86 = CARTESIAN_POINT('',(0.527076298538,2.328421436736E-02));
#87 = CARTESIAN_POINT('',(0.467882798899,2.167481100337E-02));
#88 = CARTESIAN_POINT('',(0.233182017715,2.489255056447E-02));
#89 = CARTESIAN_POINT('',(2.493787612901E-02,1.929910931332E-02));
#90 = ( GEOMETRIC_REPRESENTATION_CONTEXT(2) 
PARAMETRIC_REPRESENTATION_CONTEXT() REPRESENTATION_CONTEXT('2D SPACE',''
  ) );
#91 = ORIENTED_EDGE('',*,*,#92,.T.);
#92 = EDGE_CURVE('',#24,#22,#93,.T.);
#93 = SURFACE_CURVE('',#94,(#101,#114),.PCURVE_S1.);
#94 = B_SPLINE_CURVE_WITH_KNOTS('',5,(#95,#96,#97,#98,#99,#100),
  .UNSPECIFIED.,.F.,.F.,(6,6),(0.,1.),.PIECEWISE_BEZIER_KNOTS.);
#95 = CARTESIAN_POINT('',(-1.002645492554,-0.743524735173,
    9.974053245969E-04));
#96 = CARTESIAN_POINT('',(-0.934942218613,-0.739511407678,
    -0.533209035582));
#97 = CARTESIAN_POINT('',(-0.177996266235,-0.748007624511,
    -0.800256680916));
#98 = CARTESIAN_POINT('',(0.169161164222,-0.761933785383,-0.778226453762
    ));
#99 = CARTESIAN_POINT('',(0.915743439269,-0.744808267776,-0.535103803849
    ));
#100 = CARTESIAN_POINT('',(1.00396045049,-0.749104008079,
    -5.60635701792E-03));
#101 = PCURVE('',#35,#102);
#102 = DEFINITIONAL_REPRESENTATION('',(#103),#113);
#103 = B_SPLINE_CURVE_WITH_KNOTS('',8,(#104,#105,#106,#107,#108,#109,
    #110,#111,#112),.UNSPECIFIED.,.F.,.F.,(9,9),(0.,1.),
  .PIECEWISE_BEZIER_KNOTS.);
#104 = CARTESIAN_POINT('',(0.507703784966,2.481625211159E-02));
#105 = CARTESIAN_POINT('',(0.776647219114,4.536995061996E-02));
#106 = CARTESIAN_POINT('',(0.87327673042,0.177656251692));
#107 = CARTESIAN_POINT('',(1.511952905589,0.348672799116));
#108 = CARTESIAN_POINT('',(0.399831974962,0.503935454775));
#109 = CARTESIAN_POINT('',(1.517123588681,0.643999343328));
#110 = CARTESIAN_POINT('',(0.863308514922,0.81503150369));
#111 = CARTESIAN_POINT('',(0.7801323307,0.951895412013));
#112 = CARTESIAN_POINT('',(0.513728360943,0.97814991328));
#113 = ( GEOMETRIC_REPRESENTATION_CONTEXT(2) 
PARAMETRIC_REPRESENTATION_CONTEXT() REPRESENTATION_CONTEXT('2D SPACE',''
  ) );
#114 = PCURVE('',#115,#132);
#115 = B_SPLINE_SURFACE_WITH_KNOTS('',3,3,(
    (#116,#117,#118,#119)
    ,(#120,#121,#122,#123)
    ,(#124,#125,#126,#127)
    ,(#128,#129,#130,#131
    )),.UNSPECIFIED.,.F.,.F.,.F.,(4,4),(4,4),(0.,1.),(0.,1.),
  .PIECEWISE_BEZIER_KNOTS.);
#116 = CARTESIAN_POINT('',(1.047952413559,-0.793783068657,0.128732427955
    ));
#117 = CARTESIAN_POINT('',(1.059874754105,-0.259914410418,0.140836732592
    ));
#118 = CARTESIAN_POINT('',(1.051414394534,0.272643198949,0.133615215964)
  );
#119 = CARTESIAN_POINT('',(1.075296163559,0.800943493843,0.14118359983)
  );
#120 = CARTESIAN_POINT('',(0.947345618548,-0.797295963509,
    -0.858072453333));
#121 = CARTESIAN_POINT('',(0.954370587825,-0.262266655953,
    -0.870832639036));
#122 = CARTESIAN_POINT('',(0.961544534554,0.262712196463,-0.839666784871
    ));
#123 = CARTESIAN_POINT('',(0.954780663714,0.786234102408,-0.854934403868
    ));
#124 = CARTESIAN_POINT('',(-0.946710789592,-0.812797567176,
    -0.872081770663));
#125 = CARTESIAN_POINT('',(-0.963999171532,-0.279737618696,
    -0.846088672267));
#126 = CARTESIAN_POINT('',(-0.93295504187,0.251064317587,-0.867727823013
    ));
#127 = CARTESIAN_POINT('',(-0.936111720348,0.789267403374,
    -0.866610705806));
#128 = CARTESIAN_POINT('',(-1.066305398941,-0.796224474907,0.11921094358
    ));
#129 = CARTESIAN_POINT('',(-1.054319519099,-0.276236177257,
    0.124693510186));
#130 = CARTESIAN_POINT('',(-1.051611537818,0.261032937059,0.122338509858
    ));
#131 = CARTESIAN_POINT('',(-1.055563211441,0.795084118843,0.13044141233)
  );
#132 = DEFINITIONAL_REPRESENTATION('',(#133),#140);
#133 = B_SPLINE_CURVE_WITH_KNOTS('',5,(#134,#135,#136,#137,#138,#139),
  .UNSPECIFIED.,.F.,.F.,(6,6),(0.,1.),.PIECEWISE_BEZIER_KNOTS.);
#134 = CARTESIAN_POINT('',(0.954230738509,3.541120149175E-02));
#135 = CARTESIAN_POINT('',(0.762871912025,4.119840203029E-02));
#136 = CARTESIAN_POINT('',(0.548290964676,3.57859143105E-02));
#137 = CARTESIAN_POINT('',(0.451559407068,2.436535602739E-02));
#138 = CARTESIAN_POINT('',(0.241940642105,3.309693571099E-02));
#139 = CARTESIAN_POINT('',(4.980821447E-02,2.812130115604E-02));
#140 = ( GEOMETRIC_REPRESENTATION_CONTEXT(2) 
PARAMETRIC_REPRESENTATION_CONTEXT() REPRESENTATION_CONTEXT('2D SPACE',''
  ) );
#141 = ADVANCED_FACE('',(#142),#65,.T.);
#142 = FACE_BOUND('',#143,.F.);
#143 = EDGE_LOOP('',(#144,#199,#222,#223));
#144 = ORIENTED_EDGE('',*,*,#145,.T.);
#145 = EDGE_CURVE('',#146,#148,#150,.T.);
#146 = VERTEX_POINT('',#147);
#147 = CARTESIAN_POINT('',(-0.998869250218,0.73896389703,
    -7.330957974773E-03));
#148 = VERTEX_POINT('',#149);
#149 = CARTESIAN_POINT('',(0.998559484879,0.734213049213,
    -1.365863160269E-02));
#150 = SURFACE_CURVE('',#151,(#158,#168),.PCURVE_S1.);
#151 = B_SPLINE_CURVE_WITH_KNOTS('',5,(#152,#153,#154,#155,#156,#157),
  .UNSPECIFIED.,.F.,.F.,(6,6),(0.,1.),.PIECEWISE_BEZIER_KNOTS.);
#152 = CARTESIAN_POINT('',(-0.998869250218,0.73896389703,
    -7.330957974773E-03));
#153 = CARTESIAN_POINT('',(-0.96994689766,0.763959812158,0.554159432032)
  );
#154 = CARTESIAN_POINT('',(-0.163301588835,0.718570193523,0.816530827354
    ));
#155 = CARTESIAN_POINT('',(0.16229095437,0.745973322263,0.791901631141)
  );
#156 = CARTESIAN_POINT('',(0.957155476968,0.740152366811,0.54506690719)
  );
#157 = CARTESIAN_POINT('',(0.998559484879,0.734213049213,
    -1.365863160269E-02));
#158 = PCURVE('',#65,#159);
#159 = DEFINITIONAL_REPRESENTATION('',(#160),#167);
#160 = B_SPLINE_CURVE_WITH_KNOTS('',5,(#161,#162,#163,#164,#165,#166),
  .UNSPECIFIED.,.F.,.F.,(6,6),(0.,1.),.PIECEWISE_BEZIER_KNOTS.);
#161 = CARTESIAN_POINT('',(2.043140331445E-02,0.965315905455));
#162 = CARTESIAN_POINT('',(0.226005032995,0.981700200302));
#163 = CARTESIAN_POINT('',(0.461780986688,0.963401208423));
#164 = CARTESIAN_POINT('',(0.533872365604,0.980473394226));
#165 = CARTESIAN_POINT('',(0.777300359211,0.983283286101));
#166 = CARTESIAN_POINT('',(0.981018541573,0.972232506654));
#167 = ( GEOMETRIC_REPRESENTATION_CONTEXT(2) 
PARAMETRIC_REPRESENTATION_CONTEXT() REPRESENTATION_CONTEXT('2D SPACE',''
  ) );
#168 = PCURVE('',#169,#186);
#169 = B_SPLINE_SURFACE_WITH_KNOTS('',3,3,(
    (#170,#171,#172,#173)
    ,(#174,#175,#176,#177)
    ,(#178,#179,#180,#181)
    ,(#182,#183,#184,#185
    )),.UNSPECIFIED.,.F.,.F.,.F.,(4,4),(4,4),(0.,1.),(0.,1.),
  .PIECEWISE_BEZIER_KNOTS.);
#170 = CARTESIAN_POINT('',(-1.052730798721,0.735053360462,-0.57977026701
    ));
#171 = CARTESIAN_POINT('',(-0.346091713959,0.736039052763,-0.57540458153
    ));
#172 = CARTESIAN_POINT('',(0.345940051465,0.738320133924,-0.569894968347
    ));
#173 = CARTESIAN_POINT('',(1.049808263779,0.728793442249,-0.57098120451)
  );
#174 = CARTESIAN_POINT('',(-1.049655175791,0.745567988397,
    -0.185256721285));
#175 = CARTESIAN_POINT('',(-0.348858205082,0.73668562712,-0.169263804983
    ));
#176 = CARTESIAN_POINT('',(0.341612653362,0.733403622638,-0.169536029252
    ));
#177 = CARTESIAN_POINT('',(1.046273844575,0.740979146319,-0.168611267128
    ));
#178 = CARTESIAN_POINT('',(-1.044926386289,0.738204318703,0.226398744229
    ));
#179 = CARTESIAN_POINT('',(-0.356295843072,0.74916204452,0.221157711034)
  );
#180 = CARTESIAN_POINT('',(0.35587685146,0.738614405865,0.240346428465)
  );
#181 = CARTESIAN_POINT('',(1.043496102337,0.737896291605,0.234314835391)
  );
#182 = CARTESIAN_POINT('',(-1.043941736221,0.744860947132,0.61944848299)
  );
#183 = CARTESIAN_POINT('',(-0.344861130181,0.7453753246,0.631336140691)
  );
#184 = CARTESIAN_POINT('',(0.353253218488,0.74375972651,0.637777679397)
  );
#185 = CARTESIAN_POINT('',(1.053714513779,0.742995560169,0.63849145174)
  );
#186 = DEFINITIONAL_REPRESENTATION('',(#187),#198);
#187 = B_SPLINE_CURVE_WITH_KNOTS('',9,(#188,#189,#190,#191,#192,#193,
    #194,#195,#196,#197),.UNSPECIFIED.,.F.,.F.,(10,10),(0.,1.),
  .PIECEWISE_BEZIER_KNOTS.);
#188 = CARTESIAN_POINT('',(0.476683384538,2.339005209812E-02));
#189 = CARTESIAN_POINT('',(0.73514102334,3.019307166534E-02));
#190 = CARTESIAN_POINT('',(0.858637565083,0.144500275843));
#191 = CARTESIAN_POINT('',(1.268635076677,0.263427460325));
#192 = CARTESIAN_POINT('',(0.846338956427,0.463837665699));
#193 = CARTESIAN_POINT('',(1.07547857219,0.531386764523));
#194 = CARTESIAN_POINT('',(1.131331385104,0.726574690372));
#195 = CARTESIAN_POINT('',(0.861796815984,0.850122584293));
#196 = CARTESIAN_POINT('',(0.717841049365,0.965798349659));
#197 = CARTESIAN_POINT('',(0.461234929016,0.977063865822));
#198 = ( GEOMETRIC_REPRESENTATION_CONTEXT(2) 
PARAMETRIC_REPRESENTATION_CONTEXT() REPRESENTATION_CONTEXT('2D SPACE',''
  ) );
#199 = ORIENTED_EDGE('',*,*,#200,.T.);
#200 = EDGE_CURVE('',#148,#22,#201,.T.);
#201 = SURFACE_CURVE('',#202,(#206,#214),.PCURVE_S1.);
#202 = B_SPLINE_CURVE_WITH_KNOTS('',2,(#203,#204,#205),.UNSPECIFIED.,.F.
  ,.F.,(3,3),(0.,1.),.PIECEWISE_BEZIER_KNOTS.);
#203 = CARTESIAN_POINT('',(0.998559484879,0.734213049213,
    -1.365863160269E-02));
#204 = CARTESIAN_POINT('',(0.997678091858,-7.508498742734E-03,
    -8.439452360516E-03));
#205 = CARTESIAN_POINT('',(1.00396045049,-0.749104008079,
    -5.60635701792E-03));
#206 = PCURVE('',#65,#207);
#207 = DEFINITIONAL_REPRESENTATION('',(#208),#213);
#208 = B_SPLINE_CURVE_WITH_KNOTS('',3,(#209,#210,#211,#212),
  .UNSPECIFIED.,.F.,.F.,(4,4),(0.,1.),.PIECEWISE_BEZIER_KNOTS.);
#209 = CARTESIAN_POINT('',(0.981018541573,0.972232506654));
#210 = CARTESIAN_POINT('',(0.979355204651,0.653633522578));
#211 = CARTESIAN_POINT('',(0.977742317956,0.344697878961));
#212 = CARTESIAN_POINT('',(0.976054807292,2.146860645455E-02));
#213 = ( GEOMETRIC_REPRESENTATION_CONTEXT(2) 
PARAMETRIC_REPRESENTATION_CONTEXT() REPRESENTATION_CONTEXT('2D SPACE',''
  ) );
#214 = PCURVE('',#115,#215);
#215 = DEFINITIONAL_REPRESENTATION('',(#216),#221);
#216 = B_SPLINE_CURVE_WITH_KNOTS('',3,(#217,#218,#219,#220),
  .UNSPECIFIED.,.F.,.F.,(4,4),(0.,1.),.PIECEWISE_BEZIER_KNOTS.);
#217 = CARTESIAN_POINT('',(5.936092314376E-02,0.958739903162));
#218 = CARTESIAN_POINT('',(5.615659340931E-02,0.646576205966));
#219 = CARTESIAN_POINT('',(5.297693229288E-02,0.336815709328));
#220 = CARTESIAN_POINT('',(4.980821447E-02,2.812130115604E-02));
#221 = ( GEOMETRIC_REPRESENTATION_CONTEXT(2) 
PARAMETRIC_REPRESENTATION_CONTEXT() REPRESENTATION_CONTEXT('2D SPACE',''
  ) );
#222 = ORIENTED_EDGE('',*,*,#21,.T.);
#223 = ORIENTED_EDGE('',*,*,#224,.T.);
#224 = EDGE_CURVE('',#24,#146,#225,.T.);
#225 = SURFACE_CURVE('',#226,(#230,#238),.PCURVE_S1.);
#226 = B_SPLINE_CURVE_WITH_KNOTS('',2,(#227,#228,#229),.UNSPECIFIED.,.F.
  ,.F.,(3,3),(0.,1.),.PIECEWISE_BEZIER_KNOTS.);
#227 = CARTESIAN_POINT('',(-1.002645492554,-0.743524735173,
    9.974053245969E-04));
#228 = CARTESIAN_POINT('',(-0.999639811368,-2.190033778083E-03,
    -5.355880432131E-03));
#229 = CARTESIAN_POINT('',(-0.998869250218,0.73896389703,
    -7.330957974773E-03));
#230 = PCURVE('',#65,#231);
#231 = DEFINITIONAL_REPRESENTATION('',(#232),#237);
#232 = B_SPLINE_CURVE_WITH_KNOTS('',3,(#233,#234,#235,#236),
  .UNSPECIFIED.,.F.,.F.,(4,4),(0.,1.),.PIECEWISE_BEZIER_KNOTS.);
#233 = CARTESIAN_POINT('',(2.493787612901E-02,1.929910931332E-02));
#234 = CARTESIAN_POINT('',(2.342096353145E-02,0.33773546844));
#235 = CARTESIAN_POINT('',(2.195786980802E-02,0.644873954269));
#236 = CARTESIAN_POINT('',(2.043140331445E-02,0.965315905455));
#237 = ( GEOMETRIC_REPRESENTATION_CONTEXT(2) 
PARAMETRIC_REPRESENTATION_CONTEXT() REPRESENTATION_CONTEXT('2D SPACE',''
  ) );
#238 = PCURVE('',#115,#239);
#239 = DEFINITIONAL_REPRESENTATION('',(#240),#245);
#240 = B_SPLINE_CURVE_WITH_KNOTS('',3,(#241,#242,#243,#244),
  .UNSPECIFIED.,.F.,.F.,(4,4),(0.,1.),.PIECEWISE_BEZIER_KNOTS.);
#241 = CARTESIAN_POINT('',(0.954230738509,3.541120149175E-02));
#242 = CARTESIAN_POINT('',(0.952404801733,0.350566189718));
#243 = CARTESIAN_POINT('',(0.950626826869,0.657442996588));
#244 = CARTESIAN_POINT('',(0.948841913704,0.965517347657));
#245 = ( GEOMETRIC_REPRESENTATION_CONTEXT(2) 
PARAMETRIC_REPRESENTATION_CONTEXT() REPRESENTATION_CONTEXT('2D SPACE',''
  ) );
#246 = ADVANCED_FACE('',(#247),#115,.T.);
#247 = FACE_BOUND('',#248,.F.);
#248 = EDGE_LOOP('',(#249,#250,#251,#282));
#249 = ORIENTED_EDGE('',*,*,#92,.T.);
#250 = ORIENTED_EDGE('',*,*,#200,.F.);
#251 = ORIENTED_EDGE('',*,*,#252,.T.);
#252 = EDGE_CURVE('',#148,#146,#253,.T.);
#253 = SURFACE_CURVE('',#254,(#259,#269),.PCURVE_S1.);
#254 = B_SPLINE_CURVE_WITH_KNOTS('',3,(#255,#256,#257,#258),
  .UNSPECIFIED.,.F.,.F.,(4,4),(0.,1.),.PIECEWISE_BEZIER_KNOTS.);
#255 = CARTESIAN_POINT('',(0.998559484879,0.734213049213,
    -1.365863160269E-02));
#256 = CARTESIAN_POINT('',(0.868110295067,0.736752534384,-0.816238093317
    ));
#257 = CARTESIAN_POINT('',(-0.862905396778,0.74788807876,-0.801549183231
    ));
#258 = CARTESIAN_POINT('',(-0.998869250218,0.73896389703,
    -7.330957974773E-03));
#259 = PCURVE('',#115,#260);
#260 = DEFINITIONAL_REPRESENTATION('',(#261),#268);
#261 = B_SPLINE_CURVE_WITH_KNOTS('',5,(#262,#263,#264,#265,#266,#267),
  .UNSPECIFIED.,.F.,.F.,(6,6),(0.,1.),.PIECEWISE_BEZIER_KNOTS.);
#262 = CARTESIAN_POINT('',(5.936092314376E-02,0.958739903162));
#263 = CARTESIAN_POINT('',(0.233907863839,0.965862922503));
#264 = CARTESIAN_POINT('',(0.387928794743,0.967617087301));
#265 = CARTESIAN_POINT('',(0.614035978379,0.972072503326));
#266 = CARTESIAN_POINT('',(0.777252044061,0.970797402377));
#267 = CARTESIAN_POINT('',(0.948841913704,0.965517347657));
#268 = ( GEOMETRIC_REPRESENTATION_CONTEXT(2) 
PARAMETRIC_REPRESENTATION_CONTEXT() REPRESENTATION_CONTEXT('2D SPACE',''
  ) );
#269 = PCURVE('',#169,#270);
#270 = DEFINITIONAL_REPRESENTATION('',(#271),#281);
#271 = B_SPLINE_CURVE_WITH_KNOTS('',8,(#272,#273,#274,#275,#276,#277,
    #278,#279,#280),.UNSPECIFIED.,.F.,.F.,(9,9),(0.,1.),
  .PIECEWISE_BEZIER_KNOTS.);
#272 = CARTESIAN_POINT('',(0.461234929016,0.977063865822));
#273 = CARTESIAN_POINT('',(0.21230495625,0.953729654191));
#274 = CARTESIAN_POINT('',(9.033430080054E-02,0.849404814518));
#275 = CARTESIAN_POINT('',(-0.300416790944,0.686155858759));
#276 = CARTESIAN_POINT('',(0.286975685076,0.500533965029));
#277 = CARTESIAN_POINT('',(-0.303090744085,0.31573740181));
#278 = CARTESIAN_POINT('',(0.107747500422,0.154256413573));
#279 = CARTESIAN_POINT('',(0.229623683798,4.8893793028E-02));
#280 = CARTESIAN_POINT('',(0.476683384538,2.339005209812E-02));
#281 = ( GEOMETRIC_REPRESENTATION_CONTEXT(2) 
PARAMETRIC_REPRESENTATION_CONTEXT() REPRESENTATION_CONTEXT('2D SPACE',''
  ) );
#282 = ORIENTED_EDGE('',*,*,#224,.F.);
#283 = ADVANCED_FACE('',(#284),#169,.T.);
#284 = FACE_BOUND('',#285,.T.);
#285 = EDGE_LOOP('',(#286,#287));
#286 = ORIENTED_EDGE('',*,*,#252,.T.);
#287 = ORIENTED_EDGE('',*,*,#145,.T.);
#288 = ( GEOMETRIC_REPRESENTATION_CONTEXT(3) 
GLOBAL_UNCERTAINTY_ASSIGNED_CONTEXT((#292)) GLOBAL_UNIT_ASSIGNED_CONTEXT
((#289,#290,#291)) REPRESENTATION_CONTEXT('Context #1',
  '3D Context with UNIT and UNCERTAINTY') );
#289 = ( LENGTH_UNIT() NAMED_UNIT(*) SI_UNIT(.MILLI.,.METRE.) );
#290 = ( NAMED_UNIT(*) PLANE_ANGLE_UNIT() SI_UNIT($,.RADIAN.) );
#291 = ( NAMED_UNIT(*) SI_UNIT($,.STERADIAN.) SOLID_ANGLE_UNIT() );
#292 = UNCERTAINTY_MEASURE_WITH_UNIT(LENGTH_MEASURE(5.E-02),#289,
  'distance_accuracy_value','confusion accuracy');
#293 = PRODUCT_RELATED_PRODUCT_CATEGORY('detail',$,(#7));
#294 = PRODUCT_CATEGORY_RELATIONSHIP('','',#295,#293);
#295 = PRODUCT_CATEGORY('part',$);
#296 = CC_DESIGN_PERSON_AND_ORGANIZATION_ASSIGNMENT(#297,#300,(#6,#5));
#297 = PERSON_AND_ORGANIZATION(#298,#299);
#298 = PERSON('IP127.0.1,workstation-5','','workstation-5,,,',$,$,$);
#299 = ORGANIZATION('IP127.0.1','Unspecified','');
#300 = PERSON_AND_ORGANIZATION_ROLE('creator');
#301 = CC_DESIGN_PERSON_AND_ORGANIZATION_ASSIGNMENT(#297,#302,(#7));
#302 = PERSON_AND_ORGANIZATION_ROLE('design_owner');
#303 = CC_DESIGN_PERSON_AND_ORGANIZATION_ASSIGNMENT(#297,#304,(#6));
#304 = PERSON_AND_ORGANIZATION_ROLE('design_supplier');
#305 = CC_DESIGN_PERSON_AND_ORGANIZATION_ASSIGNMENT(#297,#306,(#307));
#306 = PERSON_AND_ORGANIZATION_ROLE('classification_officer');
#307 = SECURITY_CLASSIFICATION('','',#308);
#308 = SECURITY_CLASSIFICATION_LEVEL('unclassified');
#309 = CC_DESIGN_SECURITY_CLASSIFICATION(#307,(#6));
#310 = CC_DESIGN_DATE_AND_TIME_ASSIGNMENT(#311,#315,(#5));
#311 = DATE_AND_TIME(#312,#313);
#312 = CALENDAR_DATE(2024,1,12);
#313 = LOCAL_TIME(18,26,$,#314);
#314 = COORDINATED_UNIVERSAL_TIME_OFFSET(5,$,.BEHIND.);
#315 = DATE_TIME_ROLE('creation_date');
#316 = CC_DESIGN_DATE_AND_TIME_ASSIGNMENT(#311,#317,(#307));
#317 = DATE_TIME_ROLE('classification_date');
#318 = CC_DESIGN_APPROVAL(#319,(#6,#5,#307));
#319 = APPROVAL(#320,'');
#320 = APPROVAL_STATUS('not_yet_approved');
#321 = APPROVAL_PERSON_ORGANIZATION(#297,#319,#322);
#322 = APPROVAL_ROLE('approver');
#323 = APPROVAL_DATE_TIME(#311,#319);
ENDSEC;
END-ISO-10303-21;
