ISO-10303-21;
HEADER;
FILE_DESCRIPTION(('Open CASCADE Model'),'2;1');
FILE_NAME('Open CASCADE Shape Model','2024-07-28T10:03:59',('Author'),(
    'Open CASCADE'),'Open CASCADE STEP processor 7.5','Open CASCADE 7.5'
  ,'Unknown');
FILE_SCHEMA(('CONFIG_CONTROL_DESIGN'));
ENDSEC;
DATA;
#1 = APPLICATION_PROTOCOL_DEFINITION('international standard',
  'config_control_design',1994,#2);
#2 = APPLICATION_CONTEXT(
'configuration controlled 3D designs of mechanical parts and assemblies'
  );
#3 = SHAPE_DEFINITION_REPRESENTATION(#4,#10);
#4 = PRODUCT_DEFINITION_SHAPE('','',#5);
#5 = PRODUCT_DEFINITION('design','',#6,#9);
#6 = PRODUCT_DEFINITION_FORMATION_WITH_SPECIFIED_SOURCE('','',#7,
  .NOT_KNOWN.);
#7 = PRODUCT('Open CASCADE STEP translator 7.5 3607',
  'Open CASCADE STEP translator 7.5 3607','',(#8));
#8 = MECHANICAL_CONTEXT('',#2,'mechanical');
#9 = DESIGN_CONTEXT('',#2,'design');
#10 = ADVANCED_BREP_SHAPE_REPRESENTATION('',(#11,#15),#257);
#11 = AXIS2_PLACEMENT_3D('',#12,#13,#14);
#12 = CARTESIAN_POINT('',(0.,0.,0.));
#13 = DIRECTION('',(0.,0.,1.));
#14 = DIRECTION('',(1.,0.,-0.));
#15 = MANIFOLD_SOLID_BREP('',#16);
#16 = CLOSED_SHELL('',(#17,#124,#221,#252));
#17 = ADVANCED_FACE('',(#18),#33,.T.);
#18 = FACE_BOUND('',#19,.T.);
#19 = EDGE_LOOP('',(#20,#83));
#20 = ORIENTED_EDGE('',*,*,#21,.T.);
#21 = EDGE_CURVE('',#22,#24,#26,.T.);
#22 = VERTEX_POINT('',#23);
#23 = CARTESIAN_POINT('',(0.110392644381,1.950407594753E-03,
    -0.998588547111));
#24 = VERTEX_POINT('',#25);
#25 = CARTESIAN_POINT('',(-0.113447114204,7.702783332206E-04,
    -0.99920048813));
#26 = SURFACE_CURVE('',#27,(#32,#57),.PCURVE_S1.);
#27 = B_SPLINE_CURVE_WITH_KNOTS('',3,(#28,#29,#30,#31),.UNSPECIFIED.,.F.
  ,.F.,(4,4),(0.,1.),.PIECEWISE_BEZIER_KNOTS.);
#28 = CARTESIAN_POINT('',(0.110392644381,1.950407594753E-03,
    -0.998588547111));
#29 = CARTESIAN_POINT('',(0.113934078173,-0.145791479263,-0.999076552213
    ));
#30 = CARTESIAN_POINT('',(-0.116343631883,-0.147749547803,
    -1.000261407552));
#31 = CARTESIAN_POINT('',(-0.113447114204,7.702783332206E-04,
    -0.99920048813));
#32 = PCURVE('',#33,#50);
#33 = B_SPLINE_SURFACE_WITH_KNOTS('',3,3,(
    (#34,#35,#36,#37)
    ,(#38,#39,#40,#41)
    ,(#42,#43,#44,#45)
    ,(#46,#47,#48,#49
    )),.UNSPECIFIED.,.F.,.F.,.F.,(4,4),(4,4),(0.,1.),(0.,1.),
  .PIECEWISE_BEZIER_KNOTS.);
#34 = CARTESIAN_POINT('',(0.123562857509,-0.122373193502,-0.999407589436
    ));
#35 = CARTESIAN_POINT('',(0.124004142153,-4.008052946484E-02,
    -0.99998926994));
#36 = CARTESIAN_POINT('',(0.122403179374,4.131907372092E-02,
    -0.998366123679));
#37 = CARTESIAN_POINT('',(0.122830435634,0.121584326029,-0.999817669392)
  );
#38 = CARTESIAN_POINT('',(4.202252570812E-02,-0.120922934321,
    -0.998988869564));
#39 = CARTESIAN_POINT('',(3.999980273854E-02,-4.004604787564E-02,
    -0.996799201458));
#40 = CARTESIAN_POINT('',(4.303491387098E-02,3.911407396648E-02,
    -0.999780678643));
#41 = CARTESIAN_POINT('',(4.082821461105E-02,0.122992249755,
    -0.998365952768));
#42 = CARTESIAN_POINT('',(-4.101861930212E-02,-0.122085375186,
    -0.998918998905));
#43 = CARTESIAN_POINT('',(-3.938653932251E-02,-4.195048136781E-02,
    -0.999891281098));
#44 = CARTESIAN_POINT('',(-4.111340476519E-02,4.230794650602E-02,
    -0.99759819647));
#45 = CARTESIAN_POINT('',(-4.112124431915E-02,0.120978637352,
    -0.999679876511));
#46 = CARTESIAN_POINT('',(-0.122164681554,-0.121884912252,
    -0.999812424183));
#47 = CARTESIAN_POINT('',(-0.122251561229,-4.021175524768E-02,
    -0.997412480258));
#48 = CARTESIAN_POINT('',(-0.122851574509,4.002361842933E-02,
    -1.000752450143));
#49 = CARTESIAN_POINT('',(-0.121920540929,0.122011572123,-0.99833136797)
  );
#50 = DEFINITIONAL_REPRESENTATION('',(#51),#56);
#51 = B_SPLINE_CURVE_WITH_KNOTS('',3,(#52,#53,#54,#55),.UNSPECIFIED.,.F.
  ,.F.,(4,4),(0.,1.),.PIECEWISE_BEZIER_KNOTS.);
#52 = CARTESIAN_POINT('',(5.223345149977E-02,0.506780605916));
#53 = CARTESIAN_POINT('',(4.117859936846E-02,-9.937243096893E-02));
#54 = CARTESIAN_POINT('',(0.976154848976,-0.106966506945));
#55 = CARTESIAN_POINT('',(0.963489733635,0.503372401203));
#56 = ( GEOMETRIC_REPRESENTATION_CONTEXT(2) 
PARAMETRIC_REPRESENTATION_CONTEXT() REPRESENTATION_CONTEXT('2D SPACE',''
  ) );
#57 = PCURVE('',#58,#75);
#58 = B_SPLINE_SURFACE_WITH_KNOTS('',3,3,(
    (#59,#60,#61,#62)
    ,(#63,#64,#65,#66)
    ,(#67,#68,#69,#70)
    ,(#71,#72,#73,#74
    )),.UNSPECIFIED.,.F.,.F.,.F.,(4,4),(4,4),(0.,1.),(0.,1.),
  .PIECEWISE_BEZIER_KNOTS.);
#59 = CARTESIAN_POINT('',(0.129140287638,2.268793061376E-02,
    1.040764808655));
#60 = CARTESIAN_POINT('',(0.129336145087,1.094550321829E-02,
    0.340218426116));
#61 = CARTESIAN_POINT('',(0.127729158812,1.695225604918E-02,
    -0.349608568389));
#62 = CARTESIAN_POINT('',(0.119740873575,2.763177827001E-02,
    -1.048102378845));
#63 = CARTESIAN_POINT('',(0.135037390574,-0.136371511534,1.048983751282)
  );
#64 = CARTESIAN_POINT('',(0.130352044819,-0.129584050266,0.359327213769)
  );
#65 = CARTESIAN_POINT('',(0.134524425679,-0.126674229752,-0.348523213882
    ));
#66 = CARTESIAN_POINT('',(0.11983637852,-0.135128247154,-1.04811685476)
  );
#67 = CARTESIAN_POINT('',(-0.112707107209,-0.164167026423,1.044674839787
    ));
#68 = CARTESIAN_POINT('',(-0.111956232851,-0.168158348507,0.33726886176)
  );
#69 = CARTESIAN_POINT('',(-0.127393653285,-0.166008264914,
    -0.348453040805));
#70 = CARTESIAN_POINT('',(-0.122120062352,-0.169369380552,
    -1.041546030802));
#71 = CARTESIAN_POINT('',(-0.111704438925,4.011173732579E-03,
    1.043694496155));
#72 = CARTESIAN_POINT('',(-0.119614299511,-3.693498248222E-03,
    0.354092034123));
#73 = CARTESIAN_POINT('',(-0.117735617638,2.61712140638E-03,
    -0.350487681344));
#74 = CARTESIAN_POINT('',(-0.12171420455,7.673283107579E-03,
    -1.048102378845));
#75 = DEFINITIONAL_REPRESENTATION('',(#76),#82);
#76 = B_SPLINE_CURVE_WITH_KNOTS('',4,(#77,#78,#79,#80,#81),
  .UNSPECIFIED.,.F.,.F.,(5,5),(0.,1.),.PIECEWISE_BEZIER_KNOTS.);
#77 = CARTESIAN_POINT('',(5.683802781613E-02,0.976449737974));
#78 = CARTESIAN_POINT('',(0.304869261119,0.976525674768));
#79 = CARTESIAN_POINT('',(0.449884434649,0.976570072352));
#80 = CARTESIAN_POINT('',(0.770001089876,0.976668078689));
#81 = CARTESIAN_POINT('',(0.986968894876,0.97673450516));
#82 = ( GEOMETRIC_REPRESENTATION_CONTEXT(2) 
PARAMETRIC_REPRESENTATION_CONTEXT() REPRESENTATION_CONTEXT('2D SPACE',''
  ) );
#83 = ORIENTED_EDGE('',*,*,#84,.T.);
#84 = EDGE_CURVE('',#24,#22,#85,.T.);
#85 = SURFACE_CURVE('',#86,(#91,#99),.PCURVE_S1.);
#86 = B_SPLINE_CURVE_WITH_KNOTS('',3,(#87,#88,#89,#90),.UNSPECIFIED.,.F.
  ,.F.,(4,4),(0.,1.),.PIECEWISE_BEZIER_KNOTS.);
#87 = CARTESIAN_POINT('',(-0.113447114204,7.702783332206E-04,
    -0.99920048813));
#88 = CARTESIAN_POINT('',(-0.117338474752,0.1472954616,-0.998947508642)
  );
#89 = CARTESIAN_POINT('',(0.11562137542,0.150252919894,-0.998346929496)
  );
#90 = CARTESIAN_POINT('',(0.110392644381,1.950407594753E-03,
    -0.998588547111));
#91 = PCURVE('',#33,#92);
#92 = DEFINITIONAL_REPRESENTATION('',(#93),#98);
#93 = B_SPLINE_CURVE_WITH_KNOTS('',3,(#94,#95,#96,#97),.UNSPECIFIED.,.F.
  ,.F.,(4,4),(0.,1.),.PIECEWISE_BEZIER_KNOTS.);
#94 = CARTESIAN_POINT('',(0.963489733635,0.503372401203));
#95 = CARTESIAN_POINT('',(0.978403853829,1.105515812388));
#96 = CARTESIAN_POINT('',(2.747080057225E-02,1.115040418368));
#97 = CARTESIAN_POINT('',(5.223345149977E-02,0.506780605916));
#98 = ( GEOMETRIC_REPRESENTATION_CONTEXT(2) 
PARAMETRIC_REPRESENTATION_CONTEXT() REPRESENTATION_CONTEXT('2D SPACE',''
  ) );
#99 = PCURVE('',#100,#117);
#100 = B_SPLINE_SURFACE_WITH_KNOTS('',3,3,(
    (#101,#102,#103,#104)
    ,(#105,#106,#107,#108)
    ,(#109,#110,#111,#112)
    ,(#113,#114,#115,#116
    )),.UNSPECIFIED.,.F.,.F.,.F.,(4,4),(4,4),(0.,1.),(0.,1.),
  .PIECEWISE_BEZIER_KNOTS.);
#101 = CARTESIAN_POINT('',(-0.124017514288,2.520853304304E-04,
    1.050625324249));
#102 = CARTESIAN_POINT('',(-0.122419146227,3.292392215884E-03,
    0.35270950243));
#103 = CARTESIAN_POINT('',(-0.118150379071,7.952719884453E-03,
    -0.342215277647));
#104 = CARTESIAN_POINT('',(-0.113458432257,-6.095570977777E-03,
    -1.048984050751));
#105 = CARTESIAN_POINT('',(-0.125666512975,0.163502211261,1.057594229268
    ));
#106 = CARTESIAN_POINT('',(-0.117197045727,0.156634684098,0.345738754298
    ));
#107 = CARTESIAN_POINT('',(-0.130835747318,0.161678754057,-0.35411960262
    ));
#108 = CARTESIAN_POINT('',(-0.117049217378,0.16147351273,-1.043013070138
    ));
#109 = CARTESIAN_POINT('',(0.114993213979,0.148442483727,1.049688779894)
  );
#110 = CARTESIAN_POINT('',(0.119284124206,0.162323753534,0.352230687482)
  );
#111 = CARTESIAN_POINT('',(0.120586483132,0.142466317236,-0.337934871648
    ));
#112 = CARTESIAN_POINT('',(0.120350195691,0.156270965075,-1.046946622913
    ));
#113 = CARTESIAN_POINT('',(0.121710024774,-1.751607633196E-04,
    1.050625324249));
#114 = CARTESIAN_POINT('',(0.125594884237,-2.996591850518E-03,
    0.363089361275));
#115 = CARTESIAN_POINT('',(0.123864205971,8.503041149972E-03,
    -0.353225439295));
#116 = CARTESIAN_POINT('',(0.126470774412,-5.241078790277E-03,
    -1.045077800751));
#117 = DEFINITIONAL_REPRESENTATION('',(#118),#123);
#118 = B_SPLINE_CURVE_WITH_KNOTS('',3,(#119,#120,#121,#122),
  .UNSPECIFIED.,.F.,.F.,(4,4),(0.,1.),.PIECEWISE_BEZIER_KNOTS.);
#119 = CARTESIAN_POINT('',(1.1979281308E-02,0.976591880669));
#120 = CARTESIAN_POINT('',(0.312606956146,0.976899999652));
#121 = CARTESIAN_POINT('',(0.665413545783,0.97726159779));
#122 = CARTESIAN_POINT('',(0.983815467183,0.977587933933));
#123 = ( GEOMETRIC_REPRESENTATION_CONTEXT(2) 
PARAMETRIC_REPRESENTATION_CONTEXT() REPRESENTATION_CONTEXT('2D SPACE',''
  ) );
#124 = ADVANCED_FACE('',(#125),#58,.T.);
#125 = FACE_BOUND('',#126,.F.);
#126 = EDGE_LOOP('',(#127,#152,#153,#178));
#127 = ORIENTED_EDGE('',*,*,#128,.T.);
#128 = EDGE_CURVE('',#129,#22,#131,.T.);
#129 = VERTEX_POINT('',#130);
#130 = CARTESIAN_POINT('',(0.123071898396,1.464415535641E-03,
    1.000004256765));
#131 = SURFACE_CURVE('',#132,(#136,#144),.PCURVE_S1.);
#132 = B_SPLINE_CURVE_WITH_KNOTS('',2,(#133,#134,#135),.UNSPECIFIED.,.F.
  ,.F.,(3,3),(0.,1.),.PIECEWISE_BEZIER_KNOTS.);
#133 = CARTESIAN_POINT('',(0.123071898396,1.464415535641E-03,
    1.000004256765));
#134 = CARTESIAN_POINT('',(0.119445953025,1.685440161202E-03,
    6.600201451293E-04));
#135 = CARTESIAN_POINT('',(0.110392644381,1.950407594753E-03,
    -0.998588547111));
#136 = PCURVE('',#58,#137);
#137 = DEFINITIONAL_REPRESENTATION('',(#138),#143);
#138 = B_SPLINE_CURVE_WITH_KNOTS('',3,(#139,#140,#141,#142),
  .UNSPECIFIED.,.F.,.F.,(4,4),(0.,1.),.PIECEWISE_BEZIER_KNOTS.);
#139 = CARTESIAN_POINT('',(4.640550905368E-02,1.994136701759E-02));
#140 = CARTESIAN_POINT('',(4.987108582885E-02,0.337683733087));
#141 = CARTESIAN_POINT('',(5.337008112111E-02,0.658490085147));
#142 = CARTESIAN_POINT('',(5.683802781613E-02,0.976449737974));
#143 = ( GEOMETRIC_REPRESENTATION_CONTEXT(2) 
PARAMETRIC_REPRESENTATION_CONTEXT() REPRESENTATION_CONTEXT('2D SPACE',''
  ) );
#144 = PCURVE('',#100,#145);
#145 = DEFINITIONAL_REPRESENTATION('',(#146),#151);
#146 = B_SPLINE_CURVE_WITH_KNOTS('',3,(#147,#148,#149,#150),
  .UNSPECIFIED.,.F.,.F.,(4,4),(0.,1.),.PIECEWISE_BEZIER_KNOTS.);
#147 = CARTESIAN_POINT('',(0.996080902541,2.451145251449E-02));
#148 = CARTESIAN_POINT('',(0.991933118774,0.346811888095));
#149 = CARTESIAN_POINT('',(0.987935060152,0.657478043228));
#150 = CARTESIAN_POINT('',(0.983815467183,0.977587933933));
#151 = ( GEOMETRIC_REPRESENTATION_CONTEXT(2) 
PARAMETRIC_REPRESENTATION_CONTEXT() REPRESENTATION_CONTEXT('2D SPACE',''
  ) );
#152 = ORIENTED_EDGE('',*,*,#21,.T.);
#153 = ORIENTED_EDGE('',*,*,#154,.T.);
#154 = EDGE_CURVE('',#24,#155,#157,.T.);
#155 = VERTEX_POINT('',#156);
#156 = CARTESIAN_POINT('',(-0.114839245255,3.128580186361E-03,
    1.00055581828));
#157 = SURFACE_CURVE('',#158,(#162,#170),.PCURVE_S1.);
#158 = B_SPLINE_CURVE_WITH_KNOTS('',2,(#159,#160,#161),.UNSPECIFIED.,.F.
  ,.F.,(3,3),(0.,1.),.PIECEWISE_BEZIER_KNOTS.);
#159 = CARTESIAN_POINT('',(-0.113447114204,7.702783332206E-04,
    -0.99920048813));
#160 = CARTESIAN_POINT('',(-0.112009837953,6.683385753783E-03,
    6.452906660458E-04));
#161 = CARTESIAN_POINT('',(-0.114839245255,3.128580186361E-03,
    1.00055581828));
#162 = PCURVE('',#58,#163);
#163 = DEFINITIONAL_REPRESENTATION('',(#164),#169);
#164 = B_SPLINE_CURVE_WITH_KNOTS('',3,(#165,#166,#167,#168),
  .UNSPECIFIED.,.F.,.F.,(4,4),(0.,1.),.PIECEWISE_BEZIER_KNOTS.);
#165 = CARTESIAN_POINT('',(0.986968894876,0.97673450516));
#166 = CARTESIAN_POINT('',(0.991032625858,0.658256732723));
#167 = CARTESIAN_POINT('',(0.995058788631,0.342723210145));
#168 = CARTESIAN_POINT('',(0.999165763174,2.085640606498E-02));
#169 = ( GEOMETRIC_REPRESENTATION_CONTEXT(2) 
PARAMETRIC_REPRESENTATION_CONTEXT() REPRESENTATION_CONTEXT('2D SPACE',''
  ) );
#170 = PCURVE('',#100,#171);
#171 = DEFINITIONAL_REPRESENTATION('',(#172),#177);
#172 = B_SPLINE_CURVE_WITH_KNOTS('',3,(#173,#174,#175,#176),
  .UNSPECIFIED.,.F.,.F.,(4,4),(0.,1.),.PIECEWISE_BEZIER_KNOTS.);
#173 = CARTESIAN_POINT('',(1.1979281308E-02,0.976591880669));
#174 = CARTESIAN_POINT('',(9.889825107566E-03,0.661745658816));
#175 = CARTESIAN_POINT('',(7.770030073669E-03,0.342327880454));
#176 = CARTESIAN_POINT('',(5.657303500024E-03,2.397520123347E-02));
#177 = ( GEOMETRIC_REPRESENTATION_CONTEXT(2) 
PARAMETRIC_REPRESENTATION_CONTEXT() REPRESENTATION_CONTEXT('2D SPACE',''
  ) );
#178 = ORIENTED_EDGE('',*,*,#179,.T.);
#179 = EDGE_CURVE('',#155,#129,#180,.T.);
#180 = SURFACE_CURVE('',#181,(#186,#196),.PCURVE_S1.);
#181 = B_SPLINE_CURVE_WITH_KNOTS('',3,(#182,#183,#184,#185),
  .UNSPECIFIED.,.F.,.F.,(4,4),(0.,1.),.PIECEWISE_BEZIER_KNOTS.);
#182 = CARTESIAN_POINT('',(-0.114839245255,3.128580186361E-03,
    1.00055581828));
#183 = CARTESIAN_POINT('',(-0.120350851312,-0.155246511216,
    1.001356686628));
#184 = CARTESIAN_POINT('',(0.129398470825,-0.158044180405,0.999475271278
    ));
#185 = CARTESIAN_POINT('',(0.123071898396,1.464415535641E-03,
    1.000004256765));
#186 = PCURVE('',#58,#187);
#187 = DEFINITIONAL_REPRESENTATION('',(#188),#195);
#188 = B_SPLINE_CURVE_WITH_KNOTS('',5,(#189,#190,#191,#192,#193,#194),
  .UNSPECIFIED.,.F.,.F.,(6,6),(0.,1.),.PIECEWISE_BEZIER_KNOTS.);
#189 = CARTESIAN_POINT('',(0.999165763174,2.085640606498E-02));
#190 = CARTESIAN_POINT('',(0.810082725763,2.067480910847E-02));
#191 = CARTESIAN_POINT('',(0.614679996657,2.048714266634E-02));
#192 = CARTESIAN_POINT('',(0.403187904894,2.028402386353E-02));
#193 = CARTESIAN_POINT('',(0.263680137127,2.015003941743E-02));
#194 = CARTESIAN_POINT('',(4.640550905368E-02,1.994136701759E-02));
#195 = ( GEOMETRIC_REPRESENTATION_CONTEXT(2) 
PARAMETRIC_REPRESENTATION_CONTEXT() REPRESENTATION_CONTEXT('2D SPACE',''
  ) );
#196 = PCURVE('',#197,#214);
#197 = B_SPLINE_SURFACE_WITH_KNOTS('',3,3,(
    (#198,#199,#200,#201)
    ,(#202,#203,#204,#205)
    ,(#206,#207,#208,#209)
    ,(#210,#211,#212,#213
    )),.UNSPECIFIED.,.F.,.F.,.F.,(4,4),(4,4),(0.,1.),(0.,1.),
  .PIECEWISE_BEZIER_KNOTS.);
#198 = CARTESIAN_POINT('',(-0.123341105878,-0.124928258359,1.00011575222
    ));
#199 = CARTESIAN_POINT('',(-0.123884886953,-4.229550125745E-02,
    1.000880408142));
#200 = CARTESIAN_POINT('',(-0.123323697957,3.824262872275E-02,
    1.000971429141));
#201 = CARTESIAN_POINT('',(-0.123219035566,0.119883753359,1.001315951347
    ));
#202 = CARTESIAN_POINT('',(-4.164336051185E-02,-0.124371437828,
    0.999274924262));
#203 = CARTESIAN_POINT('',(-4.05179092157E-02,-4.401242252202E-02,
    1.001401998558));
#204 = CARTESIAN_POINT('',(-4.031068597547E-02,3.937731109412E-02,
    0.999942495655));
#205 = CARTESIAN_POINT('',(-4.123887280344E-02,0.119876660964,
    1.000916357603));
#206 = CARTESIAN_POINT('',(4.199816251512E-02,-0.124377750821,
    1.000306602624));
#207 = CARTESIAN_POINT('',(4.161668582672E-02,-4.362057532655E-02,
    1.000679420253));
#208 = CARTESIAN_POINT('',(4.215039410431E-02,3.798990102985E-02,
    1.001730811787));
#209 = CARTESIAN_POINT('',(4.222696017765E-02,0.120377387399,
    1.000713277977));
#210 = CARTESIAN_POINT('',(0.124827839434,-0.125477567315,0.999292731285
    ));
#211 = CARTESIAN_POINT('',(0.12470137353,-4.28099174017E-02,
    1.000883437682));
#212 = CARTESIAN_POINT('',(0.124617976809,3.801507320339E-02,
    1.000930321182));
#213 = CARTESIAN_POINT('',(0.124217487872,0.120005823672,1.000826358795)
  );
#214 = DEFINITIONAL_REPRESENTATION('',(#215),#220);
#215 = B_SPLINE_CURVE_WITH_KNOTS('',3,(#216,#217,#218,#219),
  .UNSPECIFIED.,.F.,.F.,(4,4),(0.,1.),.PIECEWISE_BEZIER_KNOTS.);
#216 = CARTESIAN_POINT('',(3.490032860566E-02,0.521683464793));
#217 = CARTESIAN_POINT('',(1.413953775006E-02,-0.127089333901));
#218 = CARTESIAN_POINT('',(1.0179047514,-0.135754719918));
#219 = CARTESIAN_POINT('',(0.993781372935,0.516123059716));
#220 = ( GEOMETRIC_REPRESENTATION_CONTEXT(2) 
PARAMETRIC_REPRESENTATION_CONTEXT() REPRESENTATION_CONTEXT('2D SPACE',''
  ) );
#221 = ADVANCED_FACE('',(#222),#100,.T.);
#222 = FACE_BOUND('',#223,.T.);
#223 = EDGE_LOOP('',(#224,#225,#250,#251));
#224 = ORIENTED_EDGE('',*,*,#154,.T.);
#225 = ORIENTED_EDGE('',*,*,#226,.F.);
#226 = EDGE_CURVE('',#129,#155,#227,.T.);
#227 = SURFACE_CURVE('',#228,(#233,#242),.PCURVE_S1.);
#228 = B_SPLINE_CURVE_WITH_KNOTS('',3,(#229,#230,#231,#232),
  .UNSPECIFIED.,.F.,.F.,(4,4),(0.,1.),.PIECEWISE_BEZIER_KNOTS.);
#229 = CARTESIAN_POINT('',(0.123071898396,1.464415535641E-03,
    1.000004256765));
#230 = CARTESIAN_POINT('',(0.129254967504,0.158379584013,1.001476977696)
  );
#231 = CARTESIAN_POINT('',(-0.11882157275,0.160162264505,1.001106178631)
  );
#232 = CARTESIAN_POINT('',(-0.114839245255,3.128580186361E-03,
    1.00055581828));
#233 = PCURVE('',#100,#234);
#234 = DEFINITIONAL_REPRESENTATION('',(#235),#241);
#235 = B_SPLINE_CURVE_WITH_KNOTS('',4,(#236,#237,#238,#239,#240),
  .UNSPECIFIED.,.F.,.F.,(5,5),(0.,1.),.PIECEWISE_BEZIER_KNOTS.);
#236 = CARTESIAN_POINT('',(0.996080902541,2.451145251449E-02));
#237 = CARTESIAN_POINT('',(0.732481788367,2.436873038753E-02));
#238 = CARTESIAN_POINT('',(0.578878332524,2.428556390195E-02));
#239 = CARTESIAN_POINT('',(0.250087633723,2.410754468513E-02));
#240 = CARTESIAN_POINT('',(5.657303500024E-03,2.397520123347E-02));
#241 = ( GEOMETRIC_REPRESENTATION_CONTEXT(2) 
PARAMETRIC_REPRESENTATION_CONTEXT() REPRESENTATION_CONTEXT('2D SPACE',''
  ) );
#242 = PCURVE('',#197,#243);
#243 = DEFINITIONAL_REPRESENTATION('',(#244),#249);
#244 = B_SPLINE_CURVE_WITH_KNOTS('',3,(#245,#246,#247,#248),
  .UNSPECIFIED.,.F.,.F.,(4,4),(0.,1.),.PIECEWISE_BEZIER_KNOTS.);
#245 = CARTESIAN_POINT('',(0.993781372935,0.516123059716));
#246 = CARTESIAN_POINT('',(1.020051443832,1.157350683689));
#247 = CARTESIAN_POINT('',(1.751038638048E-02,1.164896634111));
#248 = CARTESIAN_POINT('',(3.490032860566E-02,0.521683464793));
#249 = ( GEOMETRIC_REPRESENTATION_CONTEXT(2) 
PARAMETRIC_REPRESENTATION_CONTEXT() REPRESENTATION_CONTEXT('2D SPACE',''
  ) );
#250 = ORIENTED_EDGE('',*,*,#128,.T.);
#251 = ORIENTED_EDGE('',*,*,#84,.F.);
#252 = ADVANCED_FACE('',(#253),#197,.T.);
#253 = FACE_BOUND('',#254,.T.);
#254 = EDGE_LOOP('',(#255,#256));
#255 = ORIENTED_EDGE('',*,*,#226,.T.);
#256 = ORIENTED_EDGE('',*,*,#179,.T.);
#257 = ( GEOMETRIC_REPRESENTATION_CONTEXT(3) 
GLOBAL_UNCERTAINTY_ASSIGNED_CONTEXT((#261)) GLOBAL_UNIT_ASSIGNED_CONTEXT
((#258,#259,#260)) REPRESENTATION_CONTEXT('Context #1',
  '3D Context with UNIT and UNCERTAINTY') );
#258 = ( LENGTH_UNIT() NAMED_UNIT(*) SI_UNIT(.MILLI.,.METRE.) );
#259 = ( NAMED_UNIT(*) PLANE_ANGLE_UNIT() SI_UNIT($,.RADIAN.) );
#260 = ( NAMED_UNIT(*) SI_UNIT($,.STERADIAN.) SOLID_ANGLE_UNIT() );
#261 = UNCERTAINTY_MEASURE_WITH_UNIT(LENGTH_MEASURE(1.E-02),#258,
  'distance_accuracy_value','confusion accuracy');
#262 = PRODUCT_RELATED_PRODUCT_CATEGORY('detail',$,(#7));
#263 = PRODUCT_CATEGORY_RELATIONSHIP('','',#264,#262);
#264 = PRODUCT_CATEGORY('part',$);
#265 = CC_DESIGN_PERSON_AND_ORGANIZATION_ASSIGNMENT(#266,#269,(#6,#5));
#266 = PERSON_AND_ORGANIZATION(#267,#268);
#267 = PERSON('IP127.0.1,workstation-5','','workstation-5,,,',$,$,$);
#268 = ORGANIZATION('IP127.0.1','Unspecified','');
#269 = PERSON_AND_ORGANIZATION_ROLE('creator');
#270 = CC_DESIGN_PERSON_AND_ORGANIZATION_ASSIGNMENT(#266,#271,(#7));
#271 = PERSON_AND_ORGANIZATION_ROLE('design_owner');
#272 = CC_DESIGN_PERSON_AND_ORGANIZATION_ASSIGNMENT(#266,#273,(#6));
#273 = PERSON_AND_ORGANIZATION_ROLE('design_supplier');
#274 = CC_DESIGN_PERSON_AND_ORGANIZATION_ASSIGNMENT(#266,#275,(#276));
#275 = PERSON_AND_ORGANIZATION_ROLE('classification_officer');
#276 = SECURITY_CLASSIFICATION('','',#277);
#277 = SECURITY_CLASSIFICATION_LEVEL('unclassified');
#278 = CC_DESIGN_SECURITY_CLASSIFICATION(#276,(#6));
#279 = CC_DESIGN_DATE_AND_TIME_ASSIGNMENT(#280,#284,(#5));
#280 = DATE_AND_TIME(#281,#282);
#281 = CALENDAR_DATE(2024,27,7);
#282 = LOCAL_TIME(15,14,$,#283);
#283 = COORDINATED_UNIVERSAL_TIME_OFFSET(5,$,.BEHIND.);
#284 = DATE_TIME_ROLE('creation_date');
#285 = CC_DESIGN_DATE_AND_TIME_ASSIGNMENT(#280,#286,(#276));
#286 = DATE_TIME_ROLE('classification_date');
#287 = CC_DESIGN_APPROVAL(#288,(#6,#5,#276));
#288 = APPROVAL(#289,'');
#289 = APPROVAL_STATUS('not_yet_approved');
#290 = APPROVAL_PERSON_ORGANIZATION(#266,#288,#291);
#291 = APPROVAL_ROLE('approver');
#292 = APPROVAL_DATE_TIME(#280,#288);
ENDSEC;
END-ISO-10303-21;
