ISO-10303-21;
HEADER;
FILE_DESCRIPTION(('Open CASCADE Model'),'2;1');
FILE_NAME('Open CASCADE Shape Model','2024-07-29T08:35:43',('Author'),(
    'Open CASCADE'),'Open CASCADE STEP processor 7.5','Open CASCADE 7.5'
  ,'Unknown');
FILE_SCHEMA(('CONFIG_CONTROL_DESIGN'));
ENDSEC;
DATA;
#1 = APPLICATION_PROTOCOL_DEFINITION('international standard',
  'config_control_design',1994,#2);
#2 = APPLICATION_CONTEXT(
'configuration controlled 3D designs of mechanical parts and assemblies'
  );
#3 = SHAPE_DEFINITION_REPRESENTATION(#4,#10);
#4 = PRODUCT_DEFINITION_SHAPE('','',#5);
#5 = PRODUCT_DEFINITION('design','',#6,#9);
#6 = PRODUCT_DEFINITION_FORMATION_WITH_SPECIFIED_SOURCE('','',#7,
  .NOT_KNOWN.);
#7 = PRODUCT('Open CASCADE STEP translator 7.5 7590',
  'Open CASCADE STEP translator 7.5 7590','',(#8));
#8 = MECHANICAL_CONTEXT('',#2,'mechanical');
#9 = DESIGN_CONTEXT('',#2,'design');
#10 = ADVANCED_BREP_SHAPE_REPRESENTATION('',(#11,#15),#265);
#11 = AXIS2_PLACEMENT_3D('',#12,#13,#14);
#12 = CARTESIAN_POINT('',(0.,0.,0.));
#13 = DIRECTION('',(0.,0.,1.));
#14 = DIRECTION('',(1.,0.,-0.));
#15 = MANIFOLD_SOLID_BREP('',#16);
#16 = CLOSED_SHELL('',(#17,#195,#226,#258));
#17 = ADVANCED_FACE('',(#18),#32,.T.);
#18 = FACE_BOUND('',#19,.T.);
#19 = EDGE_LOOP('',(#20,#81,#127,#152));
#20 = ORIENTED_EDGE('',*,*,#21,.T.);
#21 = EDGE_CURVE('',#22,#24,#26,.T.);
#22 = VERTEX_POINT('',#23);
#23 = CARTESIAN_POINT('',(-0.202189516276,0.998505696654,
    1.109095833575E-03));
#24 = VERTEX_POINT('',#25);
#25 = CARTESIAN_POINT('',(-0.206211684893,-0.997674370805,
    -4.171378988152E-03));
#26 = SURFACE_CURVE('',#27,(#31,#56),.PCURVE_S1.);
#27 = B_SPLINE_CURVE_WITH_KNOTS('',2,(#28,#29,#30),.UNSPECIFIED.,.F.,.F.
  ,(3,3),(0.,1.),.PIECEWISE_BEZIER_KNOTS.);
#28 = CARTESIAN_POINT('',(-0.202189516276,0.998505696654,
    1.109095833575E-03));
#29 = CARTESIAN_POINT('',(-0.201748148069,3.415544265831E-04,
    -5.1609244028E-03));
#30 = CARTESIAN_POINT('',(-0.206211684893,-0.997674370805,
    -4.171378988152E-03));
#31 = PCURVE('',#32,#49);
#32 = B_SPLINE_SURFACE_WITH_KNOTS('',3,3,(
    (#33,#34,#35,#36)
    ,(#37,#38,#39,#40)
    ,(#41,#42,#43,#44)
    ,(#45,#46,#47,#48
    )),.UNSPECIFIED.,.F.,.F.,.F.,(4,4),(4,4),(0.,1.),(0.,1.),
  .PIECEWISE_BEZIER_KNOTS.);
#33 = CARTESIAN_POINT('',(0.228292733431,1.040821075439,
    -4.765608534217E-02));
#34 = CARTESIAN_POINT('',(0.233786954784,0.338558699589,
    -4.075369068093E-02));
#35 = CARTESIAN_POINT('',(0.242939686043,-0.349247924595,
    -3.299620158861E-02));
#36 = CARTESIAN_POINT('',(0.238424569368,-1.048046112061,
    -4.350569471717E-02));
#37 = CARTESIAN_POINT('',(0.224494090082,1.042903060565,0.244572043162)
  );
#38 = CARTESIAN_POINT('',(0.236728793894,0.360930745502,0.244288159776)
  );
#39 = CARTESIAN_POINT('',(0.212462959702,-0.362603801799,0.25247266404)
  );
#40 = CARTESIAN_POINT('',(0.233240620718,-1.039119274717,0.25173535469)
  );
#41 = CARTESIAN_POINT('',(-0.229223438151,1.047396093437,0.260304769844)
  );
#42 = CARTESIAN_POINT('',(-0.235720034262,0.336323089135,0.261660124171)
  );
#43 = CARTESIAN_POINT('',(-0.211089924431,-0.334123208727,0.261237766196
    ));
#44 = CARTESIAN_POINT('',(-0.216015526657,-1.051997455766,0.268382941558
    ));
#45 = CARTESIAN_POINT('',(-0.237039297819,1.043750762939,
    -3.679182752967E-02));
#46 = CARTESIAN_POINT('',(-0.236252328413,0.356716572916,
    -3.238970004135E-02));
#47 = CARTESIAN_POINT('',(-0.229690869968,-0.347801080474,
    -2.183228871797E-02));
#48 = CARTESIAN_POINT('',(-0.221902579069,-1.035350799561,
    -3.624251112342E-02));
#49 = DEFINITIONAL_REPRESENTATION('',(#50),#55);
#50 = B_SPLINE_CURVE_WITH_KNOTS('',3,(#51,#52,#53,#54),.UNSPECIFIED.,.F.
  ,.F.,(4,4),(0.,1.),.PIECEWISE_BEZIER_KNOTS.);
#51 = CARTESIAN_POINT('',(0.948439291662,2.206999579187E-02));
#52 = CARTESIAN_POINT('',(0.953003810996,0.343183051895));
#53 = CARTESIAN_POINT('',(0.957509059176,0.660126393795));
#54 = CARTESIAN_POINT('',(0.96207081892,0.981045313254));
#55 = ( GEOMETRIC_REPRESENTATION_CONTEXT(2) 
PARAMETRIC_REPRESENTATION_CONTEXT() REPRESENTATION_CONTEXT('2D SPACE',''
  ) );
#56 = PCURVE('',#57,#74);
#57 = B_SPLINE_SURFACE_WITH_KNOTS('',3,3,(
    (#58,#59,#60,#61)
    ,(#62,#63,#64,#65)
    ,(#66,#67,#68,#69)
    ,(#70,#71,#72,#73
    )),.UNSPECIFIED.,.F.,.F.,.F.,(4,4),(4,4),(0.,1.),(0.,1.),
  .PIECEWISE_BEZIER_KNOTS.);
#58 = CARTESIAN_POINT('',(-0.238048940897,1.053819417953,
    3.340189903975E-02));
#59 = CARTESIAN_POINT('',(-0.219721385373,0.360214275006,
    3.127649388987E-02));
#60 = CARTESIAN_POINT('',(-0.241676310432,-0.341370403929,
    2.514365059249E-02));
#61 = CARTESIAN_POINT('',(-0.221447378397,-1.045789957047,
    2.94346138835E-02));
#62 = CARTESIAN_POINT('',(-0.228496417017,1.055961604355,-0.258064585422
    ));
#63 = CARTESIAN_POINT('',(-0.233086879483,0.335865092959,-0.278859906359
    ));
#64 = CARTESIAN_POINT('',(-0.216771056871,-0.356585585701,
    -0.251222421455));
#65 = CARTESIAN_POINT('',(-0.220336665006,-1.061224114495,
    -0.268729218823));
#66 = CARTESIAN_POINT('',(0.235238337686,1.05369177925,-0.250431532745)
  );
#67 = CARTESIAN_POINT('',(0.234806146046,0.369648784254,-0.226533205332)
  );
#68 = CARTESIAN_POINT('',(0.233016899702,-0.356343728293,-0.242936612567
    ));
#69 = CARTESIAN_POINT('',(0.242017343186,-1.047858152645,-0.249007296498
    ));
#70 = CARTESIAN_POINT('',(0.222644418478,1.055772542953,
    4.89658638835E-02));
#71 = CARTESIAN_POINT('',(0.234529661416,0.348576625183,
    3.575130204793E-02));
#72 = CARTESIAN_POINT('',(0.228141342606,-0.339675963187,
    4.629281999039E-02));
#73 = CARTESIAN_POINT('',(0.238757699728,-1.045789957047,
    5.0064496696E-02));
#74 = DEFINITIONAL_REPRESENTATION('',(#75),#80);
#75 = B_SPLINE_CURVE_WITH_KNOTS('',3,(#76,#77,#78,#79),.UNSPECIFIED.,.F.
  ,.F.,(4,4),(0.,1.),.PIECEWISE_BEZIER_KNOTS.);
#76 = CARTESIAN_POINT('',(4.480463055234E-02,2.685618779492E-02));
#77 = CARTESIAN_POINT('',(4.370287891654E-02,0.345038159179));
#78 = CARTESIAN_POINT('',(4.260654330193E-02,0.661656002823));
#79 = CARTESIAN_POINT('',(4.151622004348E-02,0.976537499296));
#80 = ( GEOMETRIC_REPRESENTATION_CONTEXT(2) 
PARAMETRIC_REPRESENTATION_CONTEXT() REPRESENTATION_CONTEXT('2D SPACE',''
  ) );
#81 = ORIENTED_EDGE('',*,*,#82,.F.);
#82 = EDGE_CURVE('',#83,#24,#85,.T.);
#83 = VERTEX_POINT('',#84);
#84 = CARTESIAN_POINT('',(0.202335843196,-0.996295794845,
    -2.361006569117E-03));
#85 = SURFACE_CURVE('',#86,(#91,#101),.PCURVE_S1.);
#86 = B_SPLINE_CURVE_WITH_KNOTS('',3,(#87,#88,#89,#90),.UNSPECIFIED.,.F.
  ,.F.,(4,4),(0.,1.),.PIECEWISE_BEZIER_KNOTS.);
#87 = CARTESIAN_POINT('',(0.202335843196,-0.996295794845,
    -2.361006569117E-03));
#88 = CARTESIAN_POINT('',(0.186502395799,-0.995934243745,0.26864872507)
  );
#89 = CARTESIAN_POINT('',(-0.1909860772,-0.996439382642,0.268431237425)
  );
#90 = CARTESIAN_POINT('',(-0.206211684893,-0.997674370805,
    -4.171378988152E-03));
#91 = PCURVE('',#32,#92);
#92 = DEFINITIONAL_REPRESENTATION('',(#93),#100);
#93 = B_SPLINE_CURVE_WITH_KNOTS('',5,(#94,#95,#96,#97,#98,#99),
  .UNSPECIFIED.,.F.,.F.,(6,6),(0.,1.),.PIECEWISE_BEZIER_KNOTS.);
#94 = CARTESIAN_POINT('',(5.587278998259E-02,0.97586975081));
#95 = CARTESIAN_POINT('',(0.257999009377,0.977231258072));
#96 = CARTESIAN_POINT('',(0.499069871891,0.976964155039));
#97 = CARTESIAN_POINT('',(0.537070574611,0.976359113925));
#98 = CARTESIAN_POINT('',(0.76853316786,0.976954867123));
#99 = CARTESIAN_POINT('',(0.96207081892,0.981045313254));
#100 = ( GEOMETRIC_REPRESENTATION_CONTEXT(2) 
PARAMETRIC_REPRESENTATION_CONTEXT() REPRESENTATION_CONTEXT('2D SPACE',''
  ) );
#101 = PCURVE('',#102,#119);
#102 = B_SPLINE_SURFACE_WITH_KNOTS('',3,3,(
    (#103,#104,#105,#106)
    ,(#107,#108,#109,#110)
    ,(#111,#112,#113,#114)
    ,(#115,#116,#117,#118
    )),.UNSPECIFIED.,.F.,.F.,.F.,(4,4),(4,4),(0.,1.),(0.,1.),
  .PIECEWISE_BEZIER_KNOTS.);
#103 = CARTESIAN_POINT('',(-0.209915041924,-0.997326791286,
    -0.203860253096));
#104 = CARTESIAN_POINT('',(-0.210348203572,-0.997537699051,
    -6.592890560073E-02));
#105 = CARTESIAN_POINT('',(-0.20994682955,-0.996529384747,
    7.314345953663E-02));
#106 = CARTESIAN_POINT('',(-0.209792971611,-0.996685385704,
    0.211178809404));
#107 = CARTESIAN_POINT('',(-7.207945762835E-02,-0.996130181713,
    -0.202706047907));
#108 = CARTESIAN_POINT('',(-7.107013797582E-02,-0.998529108063,
    -6.240759721702E-02));
#109 = CARTESIAN_POINT('',(-6.970165839319E-02,-0.995267006985,
    7.128408958786E-02));
#110 = CARTESIAN_POINT('',(-7.224115579811E-02,-0.997175832648,
    0.211832495523));
#111 = CARTESIAN_POINT('',(6.799916398968E-02,-0.997591181905,
    -0.200632670651));
#112 = CARTESIAN_POINT('',(6.885688012246E-02,-0.996864681927,
    -6.574844572533E-02));
#113 = CARTESIAN_POINT('',(6.692044140732E-02,-0.997557297094,
    7.506872762241E-02));
#114 = CARTESIAN_POINT('',(6.832819858239E-02,-0.996072423287,
    0.210387831504));
#115 = CARTESIAN_POINT('',(0.207077145576,-0.996439635754,
    -0.202151268721));
#116 = CARTESIAN_POINT('',(0.20551861218,-0.995292853408,
    -6.321774625816E-02));
#117 = CARTESIAN_POINT('',(0.207736041285,-0.99572348076,
    7.476180714793E-02));
#118 = CARTESIAN_POINT('',(0.205856442451,-0.995335042477,0.212765723467
    ));
#119 = DEFINITIONAL_REPRESENTATION('',(#120),#126);
#120 = B_SPLINE_CURVE_WITH_KNOTS('',4,(#121,#122,#123,#124,#125),
  .UNSPECIFIED.,.F.,.F.,(5,5),(0.,1.),.PIECEWISE_BEZIER_KNOTS.);
#121 = CARTESIAN_POINT('',(0.989793670246,0.48073407197));
#122 = CARTESIAN_POINT('',(0.960325741761,0.971054987702));
#123 = CARTESIAN_POINT('',(0.500610089568,1.140821814091));
#124 = CARTESIAN_POINT('',(3.617799933603E-02,0.973123673726));
#125 = CARTESIAN_POINT('',(9.262305372052E-03,0.481184721062));
#126 = ( GEOMETRIC_REPRESENTATION_CONTEXT(2) 
PARAMETRIC_REPRESENTATION_CONTEXT() REPRESENTATION_CONTEXT('2D SPACE',''
  ) );
#127 = ORIENTED_EDGE('',*,*,#128,.T.);
#128 = EDGE_CURVE('',#83,#129,#131,.T.);
#129 = VERTEX_POINT('',#130);
#130 = CARTESIAN_POINT('',(0.203459159782,0.999101872245,
    -2.684560449173E-03));
#131 = SURFACE_CURVE('',#132,(#136,#144),.PCURVE_S1.);
#132 = B_SPLINE_CURVE_WITH_KNOTS('',2,(#133,#134,#135),.UNSPECIFIED.,.F.
  ,.F.,(3,3),(0.,1.),.PIECEWISE_BEZIER_KNOTS.);
#133 = CARTESIAN_POINT('',(0.202335843196,-0.996295794845,
    -2.361006569117E-03));
#134 = CARTESIAN_POINT('',(0.202982613292,1.533391080664E-03,
    1.710692019605E-03));
#135 = CARTESIAN_POINT('',(0.203459159782,0.999101872245,
    -2.684560449173E-03));
#136 = PCURVE('',#32,#137);
#137 = DEFINITIONAL_REPRESENTATION('',(#138),#143);
#138 = B_SPLINE_CURVE_WITH_KNOTS('',3,(#139,#140,#141,#142),
  .UNSPECIFIED.,.F.,.F.,(4,4),(0.,1.),.PIECEWISE_BEZIER_KNOTS.);
#139 = CARTESIAN_POINT('',(5.587278998259E-02,0.97586975081));
#140 = CARTESIAN_POINT('',(5.688647353037E-02,0.65708693148));
#141 = CARTESIAN_POINT('',(5.790390950347E-02,0.337124050854));
#142 = CARTESIAN_POINT('',(5.891239269385E-02,1.99766379558E-02));
#143 = ( GEOMETRIC_REPRESENTATION_CONTEXT(2) 
PARAMETRIC_REPRESENTATION_CONTEXT() REPRESENTATION_CONTEXT('2D SPACE',''
  ) );
#144 = PCURVE('',#57,#145);
#145 = DEFINITIONAL_REPRESENTATION('',(#146),#151);
#146 = B_SPLINE_CURVE_WITH_KNOTS('',3,(#147,#148,#149,#150),
  .UNSPECIFIED.,.F.,.F.,(4,4),(0.,1.),.PIECEWISE_BEZIER_KNOTS.);
#147 = CARTESIAN_POINT('',(0.929697789092,0.976079421535));
#148 = CARTESIAN_POINT('',(0.931727551841,0.66071652175));
#149 = CARTESIAN_POINT('',(0.933779621411,0.341887826072));
#150 = CARTESIAN_POINT('',(0.935808996169,2.658520824549E-02));
#151 = ( GEOMETRIC_REPRESENTATION_CONTEXT(2) 
PARAMETRIC_REPRESENTATION_CONTEXT() REPRESENTATION_CONTEXT('2D SPACE',''
  ) );
#152 = ORIENTED_EDGE('',*,*,#153,.F.);
#153 = EDGE_CURVE('',#22,#129,#154,.T.);
#154 = SURFACE_CURVE('',#155,(#160,#170),.PCURVE_S1.);
#155 = B_SPLINE_CURVE_WITH_KNOTS('',3,(#156,#157,#158,#159),
  .UNSPECIFIED.,.F.,.F.,(4,4),(0.,1.),.PIECEWISE_BEZIER_KNOTS.);
#156 = CARTESIAN_POINT('',(-0.202189516276,0.998505696654,
    1.109095833575E-03));
#157 = CARTESIAN_POINT('',(-0.206373691954,0.998879101542,0.265770651374
    ));
#158 = CARTESIAN_POINT('',(0.213783604276,1.000139877441,0.261850360105)
  );
#159 = CARTESIAN_POINT('',(0.203459159782,0.999101872245,
    -2.684560449173E-03));
#160 = PCURVE('',#32,#161);
#161 = DEFINITIONAL_REPRESENTATION('',(#162),#169);
#162 = B_SPLINE_CURVE_WITH_KNOTS('',5,(#163,#164,#165,#166,#167,#168),
  .UNSPECIFIED.,.F.,.F.,(6,6),(0.,1.),.PIECEWISE_BEZIER_KNOTS.);
#163 = CARTESIAN_POINT('',(0.948439291662,2.206999579187E-02));
#164 = CARTESIAN_POINT('',(0.752101912477,2.235428619362E-02));
#165 = CARTESIAN_POINT('',(0.534161848694,2.197179147452E-02));
#166 = CARTESIAN_POINT('',(0.432306872042,2.149836013868E-02));
#167 = CARTESIAN_POINT('',(0.25898481277,2.073659197498E-02));
#168 = CARTESIAN_POINT('',(5.891239269385E-02,1.99766379558E-02));
#169 = ( GEOMETRIC_REPRESENTATION_CONTEXT(2) 
PARAMETRIC_REPRESENTATION_CONTEXT() REPRESENTATION_CONTEXT('2D SPACE',''
  ) );
#170 = PCURVE('',#171,#188);
#171 = B_SPLINE_SURFACE_WITH_KNOTS('',3,3,(
    (#172,#173,#174,#175)
    ,(#176,#177,#178,#179)
    ,(#180,#181,#182,#183)
    ,(#184,#185,#186,#187
    )),.UNSPECIFIED.,.F.,.F.,.F.,(4,4),(4,4),(0.,1.),(0.,1.),
  .PIECEWISE_BEZIER_KNOTS.);
#172 = CARTESIAN_POINT('',(0.205216541886,0.999510884285,-0.20339871943)
  );
#173 = CARTESIAN_POINT('',(0.20651425851,0.99917754168,
    -6.57512644612E-02));
#174 = CARTESIAN_POINT('',(0.206652947208,1.000734703182,
    7.192591528983E-02));
#175 = CARTESIAN_POINT('',(0.207413807511,0.99951851368,0.208954796195)
  );
#176 = CARTESIAN_POINT('',(6.826519276261E-02,0.997111972222,
    -0.201183146085));
#177 = CARTESIAN_POINT('',(6.746014683236E-02,1.000676620428,
    -6.375266065222E-02));
#178 = CARTESIAN_POINT('',(7.021405897215E-02,0.995187516205,
    7.181344826119E-02));
#179 = CARTESIAN_POINT('',(6.994939953973E-02,0.999882027979,
    0.208661225509));
#180 = CARTESIAN_POINT('',(-7.146788695168E-02,0.998700795747,
    -0.201313999335));
#181 = CARTESIAN_POINT('',(-6.704642594784E-02,0.994444200148,
    -6.567020184505E-02));
#182 = CARTESIAN_POINT('',(-6.875601425433E-02,1.002151034412,
    7.212284921762E-02));
#183 = CARTESIAN_POINT('',(-6.90650983726E-02,0.998052852502,
    0.210124308163));
#184 = CARTESIAN_POINT('',(-0.206770762801,0.997953057289,
    -0.202544227242));
#185 = CARTESIAN_POINT('',(-0.207767497695,0.999623213445,
    -6.438559787452E-02));
#186 = CARTESIAN_POINT('',(-0.206205798628,0.997619258593,
    7.244590753975E-02));
#187 = CARTESIAN_POINT('',(-0.205427989364,0.998881578445,0.208954796195
    ));
#188 = DEFINITIONAL_REPRESENTATION('',(#189),#194);
#189 = B_SPLINE_CURVE_WITH_KNOTS('',3,(#190,#191,#192,#193),
  .UNSPECIFIED.,.F.,.F.,(4,4),(0.,1.),.PIECEWISE_BEZIER_KNOTS.);
#190 = CARTESIAN_POINT('',(0.988935759802,0.493423113403));
#191 = CARTESIAN_POINT('',(1.002317438399,1.13687107829));
#192 = CARTESIAN_POINT('',(-1.48675132317E-02,1.127635703867));
#193 = CARTESIAN_POINT('',(7.366107225766E-03,0.486138924502));
#194 = ( GEOMETRIC_REPRESENTATION_CONTEXT(2) 
PARAMETRIC_REPRESENTATION_CONTEXT() REPRESENTATION_CONTEXT('2D SPACE',''
  ) );
#195 = ADVANCED_FACE('',(#196),#102,.T.);
#196 = FACE_BOUND('',#197,.T.);
#197 = EDGE_LOOP('',(#198,#199));
#198 = ORIENTED_EDGE('',*,*,#82,.T.);
#199 = ORIENTED_EDGE('',*,*,#200,.T.);
#200 = EDGE_CURVE('',#24,#83,#201,.T.);
#201 = SURFACE_CURVE('',#202,(#207,#216),.PCURVE_S1.);
#202 = B_SPLINE_CURVE_WITH_KNOTS('',3,(#203,#204,#205,#206),
  .UNSPECIFIED.,.F.,.F.,(4,4),(0.,1.),.PIECEWISE_BEZIER_KNOTS.);
#203 = CARTESIAN_POINT('',(-0.206211684893,-0.997674370805,
    -4.171378988152E-03));
#204 = CARTESIAN_POINT('',(-0.207559138217,-0.996288681797,
    -0.268251668437));
#205 = CARTESIAN_POINT('',(0.206198548351,-0.996287417362,
    -0.266945465718));
#206 = CARTESIAN_POINT('',(0.202335843196,-0.996295794845,
    -2.361006569117E-03));
#207 = PCURVE('',#102,#208);
#208 = DEFINITIONAL_REPRESENTATION('',(#209),#215);
#209 = B_SPLINE_CURVE_WITH_KNOTS('',4,(#210,#211,#212,#213,#214),
  .UNSPECIFIED.,.F.,.F.,(5,5),(0.,1.),.PIECEWISE_BEZIER_KNOTS.);
#210 = CARTESIAN_POINT('',(9.262305372052E-03,0.481184721062));
#211 = CARTESIAN_POINT('',(7.285622602477E-03,4.462344426452E-03));
#212 = CARTESIAN_POINT('',(0.501836616407,-0.160935888305));
#213 = CARTESIAN_POINT('',(0.997669632159,2.17293221816E-03));
#214 = CARTESIAN_POINT('',(0.989793670246,0.48073407197));
#215 = ( GEOMETRIC_REPRESENTATION_CONTEXT(2) 
PARAMETRIC_REPRESENTATION_CONTEXT() REPRESENTATION_CONTEXT('2D SPACE',''
  ) );
#216 = PCURVE('',#57,#217);
#217 = DEFINITIONAL_REPRESENTATION('',(#218),#225);
#218 = B_SPLINE_CURVE_WITH_KNOTS('',5,(#219,#220,#221,#222,#223,#224),
  .UNSPECIFIED.,.F.,.F.,(6,6),(0.,1.),.PIECEWISE_BEZIER_KNOTS.);
#219 = CARTESIAN_POINT('',(4.151622004348E-02,0.976537499296));
#220 = CARTESIAN_POINT('',(0.234712544989,0.972186517928));
#221 = CARTESIAN_POINT('',(0.43272675661,0.97264280701));
#222 = CARTESIAN_POINT('',(0.535042942571,0.973244273897));
#223 = CARTESIAN_POINT('',(0.730136641333,0.975137374523));
#224 = CARTESIAN_POINT('',(0.929697789092,0.976079421535));
#225 = ( GEOMETRIC_REPRESENTATION_CONTEXT(2) 
PARAMETRIC_REPRESENTATION_CONTEXT() REPRESENTATION_CONTEXT('2D SPACE',''
  ) );
#226 = ADVANCED_FACE('',(#227),#171,.T.);
#227 = FACE_BOUND('',#228,.T.);
#228 = EDGE_LOOP('',(#229,#230));
#229 = ORIENTED_EDGE('',*,*,#153,.T.);
#230 = ORIENTED_EDGE('',*,*,#231,.T.);
#231 = EDGE_CURVE('',#129,#22,#232,.T.);
#232 = SURFACE_CURVE('',#233,(#238,#248),.PCURVE_S1.);
#233 = B_SPLINE_CURVE_WITH_KNOTS('',3,(#234,#235,#236,#237),
  .UNSPECIFIED.,.F.,.F.,(4,4),(0.,1.),.PIECEWISE_BEZIER_KNOTS.);
#234 = CARTESIAN_POINT('',(0.203459159782,0.999101872245,
    -2.684560449173E-03));
#235 = CARTESIAN_POINT('',(0.208142793746,0.999039769035,-0.271745015728
    ));
#236 = CARTESIAN_POINT('',(-0.212095256356,0.997010604771,
    -0.267068232821));
#237 = CARTESIAN_POINT('',(-0.202189516276,0.998505696654,
    1.109095833575E-03));
#238 = PCURVE('',#171,#239);
#239 = DEFINITIONAL_REPRESENTATION('',(#240),#247);
#240 = B_SPLINE_CURVE_WITH_KNOTS('',5,(#241,#242,#243,#244,#245,#246),
  .UNSPECIFIED.,.F.,.F.,(6,6),(0.,1.),.PIECEWISE_BEZIER_KNOTS.);
#241 = CARTESIAN_POINT('',(7.366107225766E-03,0.486138924502));
#242 = CARTESIAN_POINT('',(-1.142452389591E-03,9.481373167099E-02));
#243 = CARTESIAN_POINT('',(0.297292934983,-0.103694711532));
#244 = CARTESIAN_POINT('',(0.703565896184,-9.604894501243E-02));
#245 = CARTESIAN_POINT('',(1.001197543604,0.102173066821));
#246 = CARTESIAN_POINT('',(0.988935759802,0.493423113403));
#247 = ( GEOMETRIC_REPRESENTATION_CONTEXT(2) 
PARAMETRIC_REPRESENTATION_CONTEXT() REPRESENTATION_CONTEXT('2D SPACE',''
  ) );
#248 = PCURVE('',#57,#249);
#249 = DEFINITIONAL_REPRESENTATION('',(#250),#257);
#250 = B_SPLINE_CURVE_WITH_KNOTS('',5,(#251,#252,#253,#254,#255,#256),
  .UNSPECIFIED.,.F.,.F.,(6,6),(0.,1.),.PIECEWISE_BEZIER_KNOTS.);
#251 = CARTESIAN_POINT('',(0.935808996169,2.658520824549E-02));
#252 = CARTESIAN_POINT('',(0.731796875276,2.675979749815E-02));
#253 = CARTESIAN_POINT('',(0.544793318982,2.653365610145E-02));
#254 = CARTESIAN_POINT('',(0.462644285951,2.750156990384E-02));
#255 = CARTESIAN_POINT('',(0.243772504834,2.664488178448E-02));
#256 = CARTESIAN_POINT('',(4.480463055234E-02,2.685618779492E-02));
#257 = ( GEOMETRIC_REPRESENTATION_CONTEXT(2) 
PARAMETRIC_REPRESENTATION_CONTEXT() REPRESENTATION_CONTEXT('2D SPACE',''
  ) );
#258 = ADVANCED_FACE('',(#259),#57,.T.);
#259 = FACE_BOUND('',#260,.F.);
#260 = EDGE_LOOP('',(#261,#262,#263,#264));
#261 = ORIENTED_EDGE('',*,*,#128,.T.);
#262 = ORIENTED_EDGE('',*,*,#231,.T.);
#263 = ORIENTED_EDGE('',*,*,#21,.T.);
#264 = ORIENTED_EDGE('',*,*,#200,.T.);
#265 = ( GEOMETRIC_REPRESENTATION_CONTEXT(3) 
GLOBAL_UNCERTAINTY_ASSIGNED_CONTEXT((#269)) GLOBAL_UNIT_ASSIGNED_CONTEXT
((#266,#267,#268)) REPRESENTATION_CONTEXT('Context #1',
  '3D Context with UNIT and UNCERTAINTY') );
#266 = ( LENGTH_UNIT() NAMED_UNIT(*) SI_UNIT(.MILLI.,.METRE.) );
#267 = ( NAMED_UNIT(*) PLANE_ANGLE_UNIT() SI_UNIT($,.RADIAN.) );
#268 = ( NAMED_UNIT(*) SI_UNIT($,.STERADIAN.) SOLID_ANGLE_UNIT() );
#269 = UNCERTAINTY_MEASURE_WITH_UNIT(LENGTH_MEASURE(2.E-02),#266,
  'distance_accuracy_value','confusion accuracy');
#270 = PRODUCT_RELATED_PRODUCT_CATEGORY('detail',$,(#7));
#271 = PRODUCT_CATEGORY_RELATIONSHIP('','',#272,#270);
#272 = PRODUCT_CATEGORY('part',$);
#273 = CC_DESIGN_PERSON_AND_ORGANIZATION_ASSIGNMENT(#274,#277,(#6,#5));
#274 = PERSON_AND_ORGANIZATION(#275,#276);
#275 = PERSON('IP127.0.1,workstation-5','','workstation-5,,,',$,$,$);
#276 = ORGANIZATION('IP127.0.1','Unspecified','');
#277 = PERSON_AND_ORGANIZATION_ROLE('creator');
#278 = CC_DESIGN_PERSON_AND_ORGANIZATION_ASSIGNMENT(#274,#279,(#7));
#279 = PERSON_AND_ORGANIZATION_ROLE('design_owner');
#280 = CC_DESIGN_PERSON_AND_ORGANIZATION_ASSIGNMENT(#274,#281,(#6));
#281 = PERSON_AND_ORGANIZATION_ROLE('design_supplier');
#282 = CC_DESIGN_PERSON_AND_ORGANIZATION_ASSIGNMENT(#274,#283,(#284));
#283 = PERSON_AND_ORGANIZATION_ROLE('classification_officer');
#284 = SECURITY_CLASSIFICATION('','',#285);
#285 = SECURITY_CLASSIFICATION_LEVEL('unclassified');
#286 = CC_DESIGN_SECURITY_CLASSIFICATION(#284,(#6));
#287 = CC_DESIGN_DATE_AND_TIME_ASSIGNMENT(#288,#292,(#5));
#288 = DATE_AND_TIME(#289,#290);
#289 = CALENDAR_DATE(2024,27,7);
#290 = LOCAL_TIME(15,14,$,#291);
#291 = COORDINATED_UNIVERSAL_TIME_OFFSET(5,$,.BEHIND.);
#292 = DATE_TIME_ROLE('creation_date');
#293 = CC_DESIGN_DATE_AND_TIME_ASSIGNMENT(#288,#294,(#284));
#294 = DATE_TIME_ROLE('classification_date');
#295 = CC_DESIGN_APPROVAL(#296,(#6,#5,#284));
#296 = APPROVAL(#297,'');
#297 = APPROVAL_STATUS('not_yet_approved');
#298 = APPROVAL_PERSON_ORGANIZATION(#274,#296,#299);
#299 = APPROVAL_ROLE('approver');
#300 = APPROVAL_DATE_TIME(#288,#296);
ENDSEC;
END-ISO-10303-21;
