ISO-10303-21;
HEADER;
FILE_DESCRIPTION(('Open CASCADE Model'),'2;1');
FILE_NAME('Open CASCADE Shape Model','2024-07-30T11:23:51',('Author'),(
    'Open CASCADE'),'Open CASCADE STEP processor 7.5','Open CASCADE 7.5'
  ,'Unknown');
FILE_SCHEMA(('CONFIG_CONTROL_DESIGN'));
ENDSEC;
DATA;
#1 = APPLICATION_PROTOCOL_DEFINITION('international standard',
  'config_control_design',1994,#2);
#2 = APPLICATION_CONTEXT(
'configuration controlled 3D designs of mechanical parts and assemblies'
  );
#3 = SHAPE_DEFINITION_REPRESENTATION(#4,#10);
#4 = PRODUCT_DEFINITION_SHAPE('','',#5);
#5 = PRODUCT_DEFINITION('design','',#6,#9);
#6 = PRODUCT_DEFINITION_FORMATION_WITH_SPECIFIED_SOURCE('','',#7,
  .NOT_KNOWN.);
#7 = PRODUCT('Open CASCADE STEP translator 7.5 2022',
  'Open CASCADE STEP translator 7.5 2022','',(#8));
#8 = MECHANICAL_CONTEXT('',#2,'mechanical');
#9 = DESIGN_CONTEXT('',#2,'design');
#10 = ADVANCED_BREP_SHAPE_REPRESENTATION('',(#11,#15),#279);
#11 = AXIS2_PLACEMENT_3D('',#12,#13,#14);
#12 = CARTESIAN_POINT('',(0.,0.,0.));
#13 = DIRECTION('',(0.,0.,1.));
#14 = DIRECTION('',(1.,0.,-0.));
#15 = MANIFOLD_SOLID_BREP('',#16);
#16 = CLOSED_SHELL('',(#17,#145,#242,#274));
#17 = ADVANCED_FACE('',(#18),#33,.T.);
#18 = FACE_BOUND('',#19,.F.);
#19 = EDGE_LOOP('',(#20,#101));
#20 = ORIENTED_EDGE('',*,*,#21,.T.);
#21 = EDGE_CURVE('',#22,#24,#26,.T.);
#22 = VERTEX_POINT('',#23);
#23 = CARTESIAN_POINT('',(0.118614403531,-3.213427223576E-03,
    -0.998520433903));
#24 = VERTEX_POINT('',#25);
#25 = CARTESIAN_POINT('',(-0.12706863073,-2.681175945327E-03,
    -0.998628293475));
#26 = SURFACE_CURVE('',#27,(#32,#78),.PCURVE_S1.);
#27 = B_SPLINE_CURVE_WITH_KNOTS('',3,(#28,#29,#30,#31),.UNSPECIFIED.,.F.
  ,.F.,(4,4),(0.,1.),.PIECEWISE_BEZIER_KNOTS.);
#28 = CARTESIAN_POINT('',(0.118614403531,-3.213427223576E-03,
    -0.998520433903));
#29 = CARTESIAN_POINT('',(0.124195760762,0.158875761202,-0.998421765405)
  );
#30 = CARTESIAN_POINT('',(-0.131825225496,0.159669745072,-0.999294548764
    ));
#31 = CARTESIAN_POINT('',(-0.12706863073,-2.681175945327E-03,
    -0.998628293475));
#32 = PCURVE('',#33,#50);
#33 = B_SPLINE_SURFACE_WITH_KNOTS('',3,3,(
    (#34,#35,#36,#37)
    ,(#38,#39,#40,#41)
    ,(#42,#43,#44,#45)
    ,(#46,#47,#48,#49
    )),.UNSPECIFIED.,.F.,.F.,.F.,(4,4),(4,4),(0.,1.),(0.,1.),
  .PIECEWISE_BEZIER_KNOTS.);
#34 = CARTESIAN_POINT('',(0.128742188215,-0.131042376161,-0.99901419878)
  );
#35 = CARTESIAN_POINT('',(0.129345613805,-4.398203475017E-02,
    -0.999517058445));
#36 = CARTESIAN_POINT('',(0.127448791262,4.185431342324E-02,
    -0.997695715634));
#37 = CARTESIAN_POINT('',(0.128131836653,0.126892194152,-0.999112904072)
  );
#38 = CARTESIAN_POINT('',(4.358374528555E-02,-0.129056191094,
    -0.998929838164));
#39 = CARTESIAN_POINT('',(4.115578941237E-02,-4.383575325681E-02,
    -0.996549005138));
#40 = CARTESIAN_POINT('',(4.43924465711E-02,4.004965460245E-02,
    -0.999515230228));
#41 = CARTESIAN_POINT('',(4.162693567013E-02,0.128755099253,
    -0.997970402177));
#42 = CARTESIAN_POINT('',(-4.331557885229E-02,-0.130713603853,
    -0.998741717061));
#43 = CARTESIAN_POINT('',(-4.213428433709E-02,-4.573357863458E-02,
    -0.999581610539));
#44 = CARTESIAN_POINT('',(-4.404247744716E-02,4.347419721282E-02,
    -0.997186959807));
#45 = CARTESIAN_POINT('',(-4.43003216907E-02,0.126481512235,
    -0.999171453174));
#46 = CARTESIAN_POINT('',(-0.12833788991,-0.130554094911,-0.999283611774
    ));
#47 = CARTESIAN_POINT('',(-0.128679764057,-4.405384427556E-02,
    -0.996735227254));
#48 = CARTESIAN_POINT('',(-0.129932175156,4.079945662452E-02,
    -1.00003692017));
#49 = CARTESIAN_POINT('',(-0.129436522722,0.127746686339,-0.99745875597)
  );
#50 = DEFINITIONAL_REPRESENTATION('',(#51),#77);
#51 = B_SPLINE_CURVE_WITH_KNOTS('',3,(#52,#53,#54,#55,#56,#57,#58,#59,
    #60,#61,#62,#63,#64,#65,#66,#67,#68,#69,#70,#71,#72,#73,#74,#75,#76)
  ,.UNSPECIFIED.,.F.,.F.,(4,1,1,1,1,1,1,1,1,1,1,1,1,1,1,1,1,1,1,1,1,1,4)
  ,(0.,4.545454545455E-02,9.090909090909E-02,0.136363636364,
    0.181818181818,0.227272727273,0.272727272727,0.318181818182,
    0.363636363636,0.409090909091,0.454545454545,0.5,0.545454545455,
    0.590909090909,0.636363636364,0.681818181818,0.727272727273,
    0.772727272727,0.818181818182,0.863636363636,0.909090909091,
    0.954545454545,1.),.QUASI_UNIFORM_KNOTS.);
#52 = CARTESIAN_POINT('',(3.81432349142E-02,0.492700355775));
#53 = CARTESIAN_POINT('',(3.697156563948E-02,0.521283475086));
#54 = CARTESIAN_POINT('',(3.887276386195E-02,0.575926144269));
#55 = CARTESIAN_POINT('',(5.331391546544E-02,0.650222491539));
#56 = CARTESIAN_POINT('',(7.823616903253E-02,0.716762223031));
#57 = CARTESIAN_POINT('',(0.112405259168,0.775428418284));
#58 = CARTESIAN_POINT('',(0.154571594676,0.826163362693));
#59 = CARTESIAN_POINT('',(0.20351772283,0.868986411688));
#60 = CARTESIAN_POINT('',(0.258091521875,0.903979037687));
#61 = CARTESIAN_POINT('',(0.317199236736,0.931241564733));
#62 = CARTESIAN_POINT('',(0.379776482524,0.950847080431));
#63 = CARTESIAN_POINT('',(0.44475333774,0.96281046759));
#64 = CARTESIAN_POINT('',(0.511028135455,0.967083706364));
#65 = CARTESIAN_POINT('',(0.57745774718,0.963578610434));
#66 = CARTESIAN_POINT('',(0.642865637578,0.952207592548));
#67 = CARTESIAN_POINT('',(0.706062205229,0.93292428635));
#68 = CARTESIAN_POINT('',(0.765866642735,0.905743830644));
#69 = CARTESIAN_POINT('',(0.821119447342,0.870730808091));
#70 = CARTESIAN_POINT('',(0.870681629611,0.827958860246));
#71 = CARTESIAN_POINT('',(0.913425909119,0.777462574154));
#72 = CARTESIAN_POINT('',(0.948229408366,0.719207184787));
#73 = CARTESIAN_POINT('',(0.97397226825,0.653101898348));
#74 = CARTESIAN_POINT('',(0.989541693753,0.579038057129));
#75 = CARTESIAN_POINT('',(0.992395780057,0.524351224194));
#76 = CARTESIAN_POINT('',(0.991755728669,0.495673963923));
#77 = ( GEOMETRIC_REPRESENTATION_CONTEXT(2) 
PARAMETRIC_REPRESENTATION_CONTEXT() REPRESENTATION_CONTEXT('2D SPACE',''
  ) );
#78 = PCURVE('',#79,#96);
#79 = B_SPLINE_SURFACE_WITH_KNOTS('',3,3,(
    (#80,#81,#82,#83)
    ,(#84,#85,#86,#87)
    ,(#88,#89,#90,#91)
    ,(#92,#93,#94,#95
    )),.UNSPECIFIED.,.F.,.F.,.F.,(4,4),(4,4),(0.,1.),(0.,1.),
  .PIECEWISE_BEZIER_KNOTS.);
#80 = CARTESIAN_POINT('',(-0.129081726074,-1.730248564854E-03,
    1.002493023872));
#81 = CARTESIAN_POINT('',(-0.131409185816,-5.01064881078E-05,
    0.335858277577));
#82 = CARTESIAN_POINT('',(-0.12904016477,4.245995649497E-03,
    -0.325580601823));
#83 = CARTESIAN_POINT('',(-0.129692077637,-9.451195597649E-03,
    -0.999460160732));
#84 = CARTESIAN_POINT('',(-0.118847903237,0.159755577566,1.003406788169)
  );
#85 = CARTESIAN_POINT('',(-0.112914273401,0.154542027128,0.329021287934)
  );
#86 = CARTESIAN_POINT('',(-0.131028636125,0.157719021894,-0.342086851811
    ));
#87 = CARTESIAN_POINT('',(-0.118567488045,0.156695296741,-0.998897604856
    ));
#88 = CARTESIAN_POINT('',(0.125196148698,0.146848515474,0.996255891027)
  );
#89 = CARTESIAN_POINT('',(0.126975395787,0.156749568674,0.327507322926)
  );
#90 = CARTESIAN_POINT('',(0.128090718457,0.139015142062,-0.325394523943)
  );
#91 = CARTESIAN_POINT('',(0.124806791744,0.152201391982,-1.002660104179)
  );
#92 = CARTESIAN_POINT('',(0.124946594238,-9.939476847649E-03,
    0.995168745518));
#93 = CARTESIAN_POINT('',(0.127327163709,-1.257102911576E-02,
    0.341098093192));
#94 = CARTESIAN_POINT('',(0.124624055957,-3.024579874095E-03,
    -0.342604085267));
#95 = CARTESIAN_POINT('',(0.125679016113,-1.750783622265E-02,
    -0.999460160732));
#96 = DEFINITIONAL_REPRESENTATION('',(#97),#100);
#97 = B_SPLINE_CURVE_WITH_KNOTS('',1,(#98,#99),.UNSPECIFIED.,.F.,.F.,(2,
    2),(0.,1.),.PIECEWISE_BEZIER_KNOTS.);
#98 = CARTESIAN_POINT('',(0.969914324785,0.999389682342));
#99 = CARTESIAN_POINT('',(1.41982109191E-02,0.999600631162));
#100 = ( GEOMETRIC_REPRESENTATION_CONTEXT(2) 
PARAMETRIC_REPRESENTATION_CONTEXT() REPRESENTATION_CONTEXT('2D SPACE',''
  ) );
#101 = ORIENTED_EDGE('',*,*,#102,.T.);
#102 = EDGE_CURVE('',#24,#22,#103,.T.);
#103 = SURFACE_CURVE('',#104,(#109,#118),.PCURVE_S1.);
#104 = B_SPLINE_CURVE_WITH_KNOTS('',3,(#105,#106,#107,#108),
  .UNSPECIFIED.,.F.,.F.,(4,4),(0.,1.),.PIECEWISE_BEZIER_KNOTS.);
#105 = CARTESIAN_POINT('',(-0.12706863073,-2.681175945327E-03,
    -0.998628293475));
#106 = CARTESIAN_POINT('',(-0.129964812217,-0.163223646378,
    -0.997358368926));
#107 = CARTESIAN_POINT('',(0.123767706279,-0.164923829914,
    -0.999043115536));
#108 = CARTESIAN_POINT('',(0.118614403531,-3.213427223576E-03,
    -0.998520433903));
#109 = PCURVE('',#33,#110);
#110 = DEFINITIONAL_REPRESENTATION('',(#111),#117);
#111 = B_SPLINE_CURVE_WITH_KNOTS('',4,(#112,#113,#114,#115,#116),
  .UNSPECIFIED.,.F.,.F.,(5,5),(0.,1.),.PIECEWISE_BEZIER_KNOTS.);
#112 = CARTESIAN_POINT('',(0.991755728669,0.495673963923));
#113 = CARTESIAN_POINT('',(1.003388484411,2.79420435424E-02));
#114 = CARTESIAN_POINT('',(0.51166239242,-0.131213588855));
#115 = CARTESIAN_POINT('',(2.613700201233E-02,2.205221327174E-02));
#116 = CARTESIAN_POINT('',(3.81432349142E-02,0.492700355775));
#117 = ( GEOMETRIC_REPRESENTATION_CONTEXT(2) 
PARAMETRIC_REPRESENTATION_CONTEXT() REPRESENTATION_CONTEXT('2D SPACE',''
  ) );
#118 = PCURVE('',#119,#136);
#119 = B_SPLINE_SURFACE_WITH_KNOTS('',3,3,(
    (#120,#121,#122,#123)
    ,(#124,#125,#126,#127)
    ,(#128,#129,#130,#131)
    ,(#132,#133,#134,#135
    )),.UNSPECIFIED.,.F.,.F.,.F.,(4,4),(4,4),(0.,1.),(0.,1.),
  .PIECEWISE_BEZIER_KNOTS.);
#120 = CARTESIAN_POINT('',(0.11506177485,5.733250174671E-03,
    0.996594667435));
#121 = CARTESIAN_POINT('',(0.121459241943,-7.702312190308E-03,
    0.330902593323));
#122 = CARTESIAN_POINT('',(0.124444335774,-2.983855437968E-03,
    -0.327175754835));
#123 = CARTESIAN_POINT('',(0.124094985425,3.108738455921E-03,
    -0.994127988815));
#124 = CARTESIAN_POINT('',(0.117703809493,-0.158314700344,1.005557957819
    ));
#125 = CARTESIAN_POINT('',(0.11741444024,-0.15461114605,0.346322284446)
  );
#126 = CARTESIAN_POINT('',(0.127507809755,-0.15504726495,-0.325573012596
    ));
#127 = CARTESIAN_POINT('',(0.117053206022,-0.162461779376,
    -0.995195550843));
#128 = CARTESIAN_POINT('',(-0.122675970257,-0.162575296098,
    1.000067075243));
#129 = CARTESIAN_POINT('',(-0.118759276512,-0.165237737767,
    0.322022225018));
#130 = CARTESIAN_POINT('',(-0.131553022877,-0.164018128137,
    -0.33447521547));
#131 = CARTESIAN_POINT('',(-0.121738629522,-0.170774185771,
    -0.994212208778));
#132 = CARTESIAN_POINT('',(-0.122487053275,-1.102687325329E-03,
    0.995618104935));
#133 = CARTESIAN_POINT('',(-0.127140844908,-1.007991918404E-02,
    0.337553627842));
#134 = CARTESIAN_POINT('',(-0.122062257395,-3.202578180784E-03,
    -0.33845705281));
#135 = CARTESIAN_POINT('',(-0.123585686088,2.071140799671E-03,
    -1.004870176315));
#136 = DEFINITIONAL_REPRESENTATION('',(#137),#144);
#137 = B_SPLINE_CURVE_WITH_KNOTS('',5,(#138,#139,#140,#141,#142,#143),
  .UNSPECIFIED.,.F.,.F.,(6,6),(0.,1.),.PIECEWISE_BEZIER_KNOTS.);
#138 = CARTESIAN_POINT('',(0.99107988727,0.997021242026));
#139 = CARTESIAN_POINT('',(0.801865813633,0.998019681867));
#140 = CARTESIAN_POINT('',(0.64374271891,0.998854061649));
#141 = CARTESIAN_POINT('',(0.368611017175,1.000305869367));
#142 = CARTESIAN_POINT('',(0.213687464745,1.001123365889));
#143 = CARTESIAN_POINT('',(1.382892154063E-02,1.002177974187));
#144 = ( GEOMETRIC_REPRESENTATION_CONTEXT(2) 
PARAMETRIC_REPRESENTATION_CONTEXT() REPRESENTATION_CONTEXT('2D SPACE',''
  ) );
#145 = ADVANCED_FACE('',(#146),#119,.T.);
#146 = FACE_BOUND('',#147,.T.);
#147 = EDGE_LOOP('',(#148,#173,#218,#241));
#148 = ORIENTED_EDGE('',*,*,#149,.T.);
#149 = EDGE_CURVE('',#22,#150,#152,.T.);
#150 = VERTEX_POINT('',#151);
#151 = CARTESIAN_POINT('',(0.121901475514,-2.058564258429E-03,
    0.999901592731));
#152 = SURFACE_CURVE('',#153,(#157,#165),.PCURVE_S1.);
#153 = B_SPLINE_CURVE_WITH_KNOTS('',2,(#154,#155,#156),.UNSPECIFIED.,.F.
  ,.F.,(3,3),(0.,1.),.PIECEWISE_BEZIER_KNOTS.);
#154 = CARTESIAN_POINT('',(0.118614403531,-3.213427223576E-03,
    -0.998520433903));
#155 = CARTESIAN_POINT('',(0.11853590488,-9.693492598887E-04,
    6.803731038889E-04));
#156 = CARTESIAN_POINT('',(0.121901475514,-2.058564258429E-03,
    0.999901592731));
#157 = PCURVE('',#119,#158);
#158 = DEFINITIONAL_REPRESENTATION('',(#159),#164);
#159 = B_SPLINE_CURVE_WITH_KNOTS('',3,(#160,#161,#162,#163),
  .UNSPECIFIED.,.F.,.F.,(4,4),(0.,1.),.PIECEWISE_BEZIER_KNOTS.);
#160 = CARTESIAN_POINT('',(1.382892154063E-02,1.002177974187));
#161 = CARTESIAN_POINT('',(1.446952175663E-02,0.669334919683));
#162 = CARTESIAN_POINT('',(1.511837886039E-02,0.332201751515));
#163 = CARTESIAN_POINT('',(1.576046986802E-02,-1.415888490056E-03));
#164 = ( GEOMETRIC_REPRESENTATION_CONTEXT(2) 
PARAMETRIC_REPRESENTATION_CONTEXT() REPRESENTATION_CONTEXT('2D SPACE',''
  ) );
#165 = PCURVE('',#79,#166);
#166 = DEFINITIONAL_REPRESENTATION('',(#167),#172);
#167 = B_SPLINE_CURVE_WITH_KNOTS('',3,(#168,#169,#170,#171),
  .UNSPECIFIED.,.F.,.F.,(4,4),(0.,1.),.PIECEWISE_BEZIER_KNOTS.);
#168 = CARTESIAN_POINT('',(0.969914324785,0.999389682342));
#169 = CARTESIAN_POINT('',(0.974210241012,0.662308250747));
#170 = CARTESIAN_POINT('',(0.978358780168,0.336790842157));
#171 = CARTESIAN_POINT('',(0.982681362253,-2.382940610505E-03));
#172 = ( GEOMETRIC_REPRESENTATION_CONTEXT(2) 
PARAMETRIC_REPRESENTATION_CONTEXT() REPRESENTATION_CONTEXT('2D SPACE',''
  ) );
#173 = ORIENTED_EDGE('',*,*,#174,.T.);
#174 = EDGE_CURVE('',#150,#175,#177,.T.);
#175 = VERTEX_POINT('',#176);
#176 = CARTESIAN_POINT('',(-0.121398604785,-1.658237927283E-03,
    1.000225181381));
#177 = SURFACE_CURVE('',#178,(#183,#193),.PCURVE_S1.);
#178 = B_SPLINE_CURVE_WITH_KNOTS('',3,(#179,#180,#181,#182),
  .UNSPECIFIED.,.F.,.F.,(4,4),(0.,1.),.PIECEWISE_BEZIER_KNOTS.);
#179 = CARTESIAN_POINT('',(0.121901475514,-2.058564258429E-03,
    0.999901592731));
#180 = CARTESIAN_POINT('',(0.123810853466,-0.160617453739,1.000872300271
    ));
#181 = CARTESIAN_POINT('',(-0.125224311927,-0.16153961758,0.999797883324
    ));
#182 = CARTESIAN_POINT('',(-0.121398604785,-1.658237927283E-03,
    1.000225181381));
#183 = PCURVE('',#119,#184);
#184 = DEFINITIONAL_REPRESENTATION('',(#185),#192);
#185 = B_SPLINE_CURVE_WITH_KNOTS('',5,(#186,#187,#188,#189,#190,#191),
  .UNSPECIFIED.,.F.,.F.,(6,6),(0.,1.),.PIECEWISE_BEZIER_KNOTS.);
#186 = CARTESIAN_POINT('',(1.576046986802E-02,-1.415888490056E-03));
#187 = CARTESIAN_POINT('',(0.214719721165,-1.600641011964E-03));
#188 = CARTESIAN_POINT('',(0.3507212422,-1.726931314279E-03));
#189 = CARTESIAN_POINT('',(0.615779876466,-1.973063378081E-03));
#190 = CARTESIAN_POINT('',(0.800233886182,-2.144346408395E-03));
#191 = CARTESIAN_POINT('',(0.99871729743,-2.328657067717E-03));
#192 = ( GEOMETRIC_REPRESENTATION_CONTEXT(2) 
PARAMETRIC_REPRESENTATION_CONTEXT() REPRESENTATION_CONTEXT('2D SPACE',''
  ) );
#193 = PCURVE('',#194,#211);
#194 = B_SPLINE_SURFACE_WITH_KNOTS('',3,3,(
    (#195,#196,#197,#198)
    ,(#199,#200,#201,#202)
    ,(#203,#204,#205,#206)
    ,(#207,#208,#209,#210
    )),.UNSPECIFIED.,.F.,.F.,.F.,(4,4),(4,4),(0.,1.),(0.,1.),
  .PIECEWISE_BEZIER_KNOTS.);
#195 = CARTESIAN_POINT('',(-0.135189309716,0.130045324564,1.000019669533
    ));
#196 = CARTESIAN_POINT('',(-4.961542156706E-02,0.129406951424,
    0.999453647678));
#197 = CARTESIAN_POINT('',(3.74832829437E-02,0.129718381885,
    1.00142712192));
#198 = CARTESIAN_POINT('',(0.122623190284,0.129190832376,0.999870121479)
  );
#199 = CARTESIAN_POINT('',(-0.13423505734,4.334383361294E-02,
    0.998646442859));
#200 = CARTESIAN_POINT('',(-4.794946057004E-02,4.145711376069E-02,
    0.999146180127));
#201 = CARTESIAN_POINT('',(3.652015161893E-02,4.382206812833E-02,
    0.999895587439));
#202 = CARTESIAN_POINT('',(0.124131470924,4.215333165352E-02,
    1.000257336687));
#203 = CARTESIAN_POINT('',(-0.134764745496,-4.44264400229E-02,
    0.999328832592));
#204 = CARTESIAN_POINT('',(-4.893232130913E-02,-4.305477403703E-02,
    1.000826265061));
#205 = CARTESIAN_POINT('',(3.887360108186E-02,-4.607058122996E-02,
    1.001512030594));
#206 = CARTESIAN_POINT('',(0.12425793717,-4.471427438183E-02,
    0.999791018756));
#207 = CARTESIAN_POINT('',(-0.133968606591,-0.129964441061,0.99926507473
    ));
#208 = CARTESIAN_POINT('',(-4.781223716255E-02,-0.131705289936,
    1.00049519663));
#209 = CARTESIAN_POINT('',(3.84098562067E-02,-0.13135507169,
    0.999618306366));
#210 = CARTESIAN_POINT('',(0.123599752784,-0.132894128561,1.001189112663
    ));
#211 = DEFINITIONAL_REPRESENTATION('',(#212),#217);
#212 = B_SPLINE_CURVE_WITH_KNOTS('',3,(#213,#214,#215,#216),
  .UNSPECIFIED.,.F.,.F.,(4,4),(0.,1.),.PIECEWISE_BEZIER_KNOTS.);
#213 = CARTESIAN_POINT('',(0.502458198704,0.992173808597));
#214 = CARTESIAN_POINT('',(1.10819285975,0.997606284819));
#215 = CARTESIAN_POINT('',(1.118126742232,3.480699929959E-02));
#216 = CARTESIAN_POINT('',(0.504569331971,5.086838346099E-02));
#217 = ( GEOMETRIC_REPRESENTATION_CONTEXT(2) 
PARAMETRIC_REPRESENTATION_CONTEXT() REPRESENTATION_CONTEXT('2D SPACE',''
  ) );
#218 = ORIENTED_EDGE('',*,*,#219,.T.);
#219 = EDGE_CURVE('',#175,#24,#220,.T.);
#220 = SURFACE_CURVE('',#221,(#225,#233),.PCURVE_S1.);
#221 = B_SPLINE_CURVE_WITH_KNOTS('',2,(#222,#223,#224),.UNSPECIFIED.,.F.
  ,.F.,(3,3),(0.,1.),.PIECEWISE_BEZIER_KNOTS.);
#222 = CARTESIAN_POINT('',(-0.121398604785,-1.658237927283E-03,
    1.000225181381));
#223 = CARTESIAN_POINT('',(-0.123753593247,-4.637188986186E-03,
    7.694770087332E-04));
#224 = CARTESIAN_POINT('',(-0.12706863073,-2.681175945327E-03,
    -0.998628293475));
#225 = PCURVE('',#119,#226);
#226 = DEFINITIONAL_REPRESENTATION('',(#227),#232);
#227 = B_SPLINE_CURVE_WITH_KNOTS('',3,(#228,#229,#230,#231),
  .UNSPECIFIED.,.F.,.F.,(4,4),(0.,1.),.PIECEWISE_BEZIER_KNOTS.);
#228 = CARTESIAN_POINT('',(0.99871729743,-2.328657067717E-03));
#229 = CARTESIAN_POINT('',(0.996138139508,0.335152394135));
#230 = CARTESIAN_POINT('',(0.993627519356,0.663665324998));
#231 = CARTESIAN_POINT('',(0.99107988727,0.997021242026));
#232 = ( GEOMETRIC_REPRESENTATION_CONTEXT(2) 
PARAMETRIC_REPRESENTATION_CONTEXT() REPRESENTATION_CONTEXT('2D SPACE',''
  ) );
#233 = PCURVE('',#79,#234);
#234 = DEFINITIONAL_REPRESENTATION('',(#235),#240);
#235 = B_SPLINE_CURVE_WITH_KNOTS('',3,(#236,#237,#238,#239),
  .UNSPECIFIED.,.F.,.F.,(4,4),(0.,1.),.PIECEWISE_BEZIER_KNOTS.);
#236 = CARTESIAN_POINT('',(1.199895074989E-03,1.121794668621E-03));
#237 = CARTESIAN_POINT('',(5.537021610537E-03,0.334282575563));
#238 = CARTESIAN_POINT('',(9.903832709534E-03,0.669723606355));
#239 = CARTESIAN_POINT('',(1.41982109191E-02,0.999600631162));
#240 = ( GEOMETRIC_REPRESENTATION_CONTEXT(2) 
PARAMETRIC_REPRESENTATION_CONTEXT() REPRESENTATION_CONTEXT('2D SPACE',''
  ) );
#241 = ORIENTED_EDGE('',*,*,#102,.T.);
#242 = ADVANCED_FACE('',(#243),#79,.T.);
#243 = FACE_BOUND('',#244,.T.);
#244 = EDGE_LOOP('',(#245,#246,#247,#273));
#245 = ORIENTED_EDGE('',*,*,#21,.T.);
#246 = ORIENTED_EDGE('',*,*,#219,.F.);
#247 = ORIENTED_EDGE('',*,*,#248,.T.);
#248 = EDGE_CURVE('',#175,#150,#249,.T.);
#249 = SURFACE_CURVE('',#250,(#255,#264),.PCURVE_S1.);
#250 = B_SPLINE_CURVE_WITH_KNOTS('',3,(#251,#252,#253,#254),
  .UNSPECIFIED.,.F.,.F.,(4,4),(0.,1.),.PIECEWISE_BEZIER_KNOTS.);
#251 = CARTESIAN_POINT('',(-0.121398604785,-1.658237927283E-03,
    1.000225181381));
#252 = CARTESIAN_POINT('',(-0.125804392282,0.156511120979,0.999430335768
    ));
#253 = CARTESIAN_POINT('',(0.127598379335,0.155987378893,0.999818594534)
  );
#254 = CARTESIAN_POINT('',(0.121901475514,-2.058564258429E-03,
    0.999901592731));
#255 = PCURVE('',#79,#256);
#256 = DEFINITIONAL_REPRESENTATION('',(#257),#263);
#257 = B_SPLINE_CURVE_WITH_KNOTS('',4,(#258,#259,#260,#261,#262),
  .UNSPECIFIED.,.F.,.F.,(5,5),(0.,1.),.PIECEWISE_BEZIER_KNOTS.);
#258 = CARTESIAN_POINT('',(1.199895074989E-03,1.121794668621E-03));
#259 = CARTESIAN_POINT('',(0.246240967365,2.467867142086E-04));
#260 = CARTESIAN_POINT('',(0.516002183409,-7.164934723552E-04));
#261 = CARTESIAN_POINT('',(0.722433423848,-1.45363102948E-03));
#262 = CARTESIAN_POINT('',(0.982681362253,-2.382940610505E-03));
#263 = ( GEOMETRIC_REPRESENTATION_CONTEXT(2) 
PARAMETRIC_REPRESENTATION_CONTEXT() REPRESENTATION_CONTEXT('2D SPACE',''
  ) );
#264 = PCURVE('',#194,#265);
#265 = DEFINITIONAL_REPRESENTATION('',(#266),#272);
#266 = B_SPLINE_CURVE_WITH_KNOTS('',4,(#267,#268,#269,#270,#271),
  .UNSPECIFIED.,.F.,.F.,(5,5),(0.,1.),.PIECEWISE_BEZIER_KNOTS.);
#267 = CARTESIAN_POINT('',(0.504569331971,5.086838346099E-02));
#268 = CARTESIAN_POINT('',(4.945227014732E-02,3.89510670312E-02));
#269 = CARTESIAN_POINT('',(-0.102399584422,0.530401330365));
#270 = CARTESIAN_POINT('',(4.953975562419E-02,1.010120005573));
#271 = CARTESIAN_POINT('',(0.502458198704,0.992173808597));
#272 = ( GEOMETRIC_REPRESENTATION_CONTEXT(2) 
PARAMETRIC_REPRESENTATION_CONTEXT() REPRESENTATION_CONTEXT('2D SPACE',''
  ) );
#273 = ORIENTED_EDGE('',*,*,#149,.F.);
#274 = ADVANCED_FACE('',(#275),#194,.T.);
#275 = FACE_BOUND('',#276,.F.);
#276 = EDGE_LOOP('',(#277,#278));
#277 = ORIENTED_EDGE('',*,*,#174,.T.);
#278 = ORIENTED_EDGE('',*,*,#248,.T.);
#279 = ( GEOMETRIC_REPRESENTATION_CONTEXT(3) 
GLOBAL_UNCERTAINTY_ASSIGNED_CONTEXT((#283)) GLOBAL_UNIT_ASSIGNED_CONTEXT
((#280,#281,#282)) REPRESENTATION_CONTEXT('Context #1',
  '3D Context with UNIT and UNCERTAINTY') );
#280 = ( LENGTH_UNIT() NAMED_UNIT(*) SI_UNIT(.MILLI.,.METRE.) );
#281 = ( NAMED_UNIT(*) PLANE_ANGLE_UNIT() SI_UNIT($,.RADIAN.) );
#282 = ( NAMED_UNIT(*) SI_UNIT($,.STERADIAN.) SOLID_ANGLE_UNIT() );
#283 = UNCERTAINTY_MEASURE_WITH_UNIT(LENGTH_MEASURE(1.E-02),#280,
  'distance_accuracy_value','confusion accuracy');
#284 = PRODUCT_RELATED_PRODUCT_CATEGORY('detail',$,(#7));
#285 = PRODUCT_CATEGORY_RELATIONSHIP('','',#286,#284);
#286 = PRODUCT_CATEGORY('part',$);
#287 = CC_DESIGN_PERSON_AND_ORGANIZATION_ASSIGNMENT(#288,#291,(#6,#5));
#288 = PERSON_AND_ORGANIZATION(#289,#290);
#289 = PERSON('IP127.0.1,workstation-5','','workstation-5,,,',$,$,$);
#290 = ORGANIZATION('IP127.0.1','Unspecified','');
#291 = PERSON_AND_ORGANIZATION_ROLE('creator');
#292 = CC_DESIGN_PERSON_AND_ORGANIZATION_ASSIGNMENT(#288,#293,(#7));
#293 = PERSON_AND_ORGANIZATION_ROLE('design_owner');
#294 = CC_DESIGN_PERSON_AND_ORGANIZATION_ASSIGNMENT(#288,#295,(#6));
#295 = PERSON_AND_ORGANIZATION_ROLE('design_supplier');
#296 = CC_DESIGN_PERSON_AND_ORGANIZATION_ASSIGNMENT(#288,#297,(#298));
#297 = PERSON_AND_ORGANIZATION_ROLE('classification_officer');
#298 = SECURITY_CLASSIFICATION('','',#299);
#299 = SECURITY_CLASSIFICATION_LEVEL('unclassified');
#300 = CC_DESIGN_SECURITY_CLASSIFICATION(#298,(#6));
#301 = CC_DESIGN_DATE_AND_TIME_ASSIGNMENT(#302,#306,(#5));
#302 = DATE_AND_TIME(#303,#304);
#303 = CALENDAR_DATE(2024,30,7);
#304 = LOCAL_TIME(0,2,$,#305);
#305 = COORDINATED_UNIVERSAL_TIME_OFFSET(5,$,.BEHIND.);
#306 = DATE_TIME_ROLE('creation_date');
#307 = CC_DESIGN_DATE_AND_TIME_ASSIGNMENT(#302,#308,(#298));
#308 = DATE_TIME_ROLE('classification_date');
#309 = CC_DESIGN_APPROVAL(#310,(#6,#5,#298));
#310 = APPROVAL(#311,'');
#311 = APPROVAL_STATUS('not_yet_approved');
#312 = APPROVAL_PERSON_ORGANIZATION(#288,#310,#313);
#313 = APPROVAL_ROLE('approver');
#314 = APPROVAL_DATE_TIME(#302,#310);
ENDSEC;
END-ISO-10303-21;
