ISO-10303-21;
HEADER;
FILE_DESCRIPTION(('Open CASCADE Model'),'2;1');
FILE_NAME('Open CASCADE Shape Model','2024-11-26T15:47:45',('Author'),(
    'Open CASCADE'),'Open CASCADE STEP processor 7.5','Open CASCADE 7.5'
  ,'Unknown');
FILE_SCHEMA(('CONFIG_CONTROL_DESIGN'));
ENDSEC;
DATA;
#1 = APPLICATION_PROTOCOL_DEFINITION('international standard',
  'config_control_design',1994,#2);
#2 = APPLICATION_CONTEXT(
'configuration controlled 3D designs of mechanical parts and assemblies'
  );
#3 = SHAPE_DEFINITION_REPRESENTATION(#4,#10);
#4 = PRODUCT_DEFINITION_SHAPE('','',#5);
#5 = PRODUCT_DEFINITION('design','',#6,#9);
#6 = PRODUCT_DEFINITION_FORMATION_WITH_SPECIFIED_SOURCE('','',#7,
  .NOT_KNOWN.);
#7 = PRODUCT('Open CASCADE STEP translator 7.5 5895',
  'Open CASCADE STEP translator 7.5 5895','',(#8));
#8 = MECHANICAL_CONTEXT('',#2,'mechanical');
#9 = DESIGN_CONTEXT('',#2,'design');
#10 = ADVANCED_BREP_SHAPE_REPRESENTATION('',(#11,#15),#342);
#11 = AXIS2_PLACEMENT_3D('',#12,#13,#14);
#12 = CARTESIAN_POINT('',(0.,0.,0.));
#13 = DIRECTION('',(0.,0.,1.));
#14 = DIRECTION('',(1.,0.,-0.));
#15 = MANIFOLD_SOLID_BREP('',#16);
#16 = CLOSED_SHELL('',(#17,#253,#332,#337));
#17 = ADVANCED_FACE('',(#18),#32,.T.);
#18 = FACE_BOUND('',#19,.F.);
#19 = EDGE_LOOP('',(#20,#83,#161,#207));
#20 = ORIENTED_EDGE('',*,*,#21,.T.);
#21 = EDGE_CURVE('',#22,#24,#26,.T.);
#22 = VERTEX_POINT('',#23);
#23 = CARTESIAN_POINT('',(-0.52156423529,6.529833578194E-03,
    -0.999353652199));
#24 = VERTEX_POINT('',#25);
#25 = CARTESIAN_POINT('',(-0.921581010024,8.660808904096E-03,
    1.001703863343));
#26 = SURFACE_CURVE('',#27,(#31,#56),.PCURVE_S1.);
#27 = B_SPLINE_CURVE_WITH_KNOTS('',2,(#28,#29,#30),.UNSPECIFIED.,.F.,.F.
  ,(3,3),(0.,1.),.PIECEWISE_BEZIER_KNOTS.);
#28 = CARTESIAN_POINT('',(-0.52156423529,6.529833578194E-03,
    -0.999353652199));
#29 = CARTESIAN_POINT('',(-0.719949966096,1.085803885917E-02,
    1.466640887243E-03));
#30 = CARTESIAN_POINT('',(-0.921581010024,8.660808904096E-03,
    1.001703863343));
#31 = PCURVE('',#32,#49);
#32 = B_SPLINE_SURFACE_WITH_KNOTS('',3,3,(
    (#33,#34,#35,#36)
    ,(#37,#38,#39,#40)
    ,(#41,#42,#43,#44)
    ,(#45,#46,#47,#48
    )),.UNSPECIFIED.,.F.,.F.,.F.,(4,4),(4,4),(0.,1.),(0.,1.),
  .PIECEWISE_BEZIER_KNOTS.);
#33 = CARTESIAN_POINT('',(-0.425485342741,2.887928858399E-03,
    -1.056025266647));
#34 = CARTESIAN_POINT('',(-0.5975467539,-1.236300953122E-02,
    -0.363545343167));
#35 = CARTESIAN_POINT('',(-0.754993194303,-9.32128748273E-04,
    0.340468519343));
#36 = CARTESIAN_POINT('',(-0.922555625439,-1.90847273916E-02,
    1.040654420853));
#37 = CARTESIAN_POINT('',(-0.424225764113,-0.505238939915,
    -1.072703650426));
#38 = CARTESIAN_POINT('',(-0.576981389335,-0.725895394622,
    -0.363313015345));
#39 = CARTESIAN_POINT('',(-0.740264766044,-0.956896597196,0.34727993321)
  );
#40 = CARTESIAN_POINT('',(-0.925032060082,-1.18427940755,1.046516191136)
  );
#41 = CARTESIAN_POINT('',(0.420354576152,-0.518452370418,-1.066489803838
    ));
#42 = CARTESIAN_POINT('',(0.565808081157,-0.744785982402,-0.344572439971
    ));
#43 = CARTESIAN_POINT('',(0.739471514468,-0.969065727863,0.324208805598)
  );
#44 = CARTESIAN_POINT('',(0.928557062,-1.205311131276,1.02962830752));
#45 = CARTESIAN_POINT('',(0.420706063509,-1.262461766601E-03,
    -1.056025266647));
#46 = CARTESIAN_POINT('',(0.600538202637,-1.966081647461E-02,
    -0.376210078754));
#47 = CARTESIAN_POINT('',(0.762497791636,-2.05096383943E-02,
    0.350991237333));
#48 = CARTESIAN_POINT('',(0.935842812061,-3.690699487925E-02,
    1.039677858353));
#49 = DEFINITIONAL_REPRESENTATION('',(#50),#55);
#50 = B_SPLINE_CURVE_WITH_KNOTS('',3,(#51,#52,#53,#54),.UNSPECIFIED.,.F.
  ,.F.,(4,4),(0.,1.),.PIECEWISE_BEZIER_KNOTS.);
#51 = CARTESIAN_POINT('',(-2.777971649228E-03,3.638576009556E-02));
#52 = CARTESIAN_POINT('',(-1.410547006667E-02,0.353704611072));
#53 = CARTESIAN_POINT('',(-2.119205541693E-03,0.6673207008));
#54 = CARTESIAN_POINT('',(-1.782251156795E-03,0.982159690326));
#55 = ( GEOMETRIC_REPRESENTATION_CONTEXT(2) 
PARAMETRIC_REPRESENTATION_CONTEXT() REPRESENTATION_CONTEXT('2D SPACE',''
  ) );
#56 = PCURVE('',#57,#74);
#57 = B_SPLINE_SURFACE_WITH_KNOTS('',3,3,(
    (#58,#59,#60,#61)
    ,(#62,#63,#64,#65)
    ,(#66,#67,#68,#69)
    ,(#70,#71,#72,#73
    )),.UNSPECIFIED.,.F.,.F.,.F.,(4,4),(4,4),(0.,1.),(0.,1.),
  .PIECEWISE_BEZIER_KNOTS.);
#58 = CARTESIAN_POINT('',(0.385077655315,1.780291832983E-02,
    -1.135107159615));
#59 = CARTESIAN_POINT('',(0.573861719944,2.548739599884E-02,
    -0.442468619318));
#60 = CARTESIAN_POINT('',(0.734280112167,1.573412307756E-02,
    0.269344071899));
#61 = CARTESIAN_POINT('',(0.920233905315,2.903338707983E-02,
    0.966455280781));
#62 = CARTESIAN_POINT('',(0.40359712013,0.53119400951,-1.130338510828));
#63 = CARTESIAN_POINT('',(0.560398859293,0.756678037942,-0.438447168843)
  );
#64 = CARTESIAN_POINT('',(0.778376433169,0.976066212158,0.274494814845)
  );
#65 = CARTESIAN_POINT('',(0.947288467413,1.205575978655,0.971742696323)
  );
#66 = CARTESIAN_POINT('',(-0.411617449325,0.538763670109,-1.139957369898
    ));
#67 = CARTESIAN_POINT('',(-0.554493214045,0.7521626531,-0.407190839946)
  );
#68 = CARTESIAN_POINT('',(-0.768795330673,1.004548808305,0.258720836809)
  );
#69 = CARTESIAN_POINT('',(-0.922376928501,1.216565562913,0.983440877875)
  );
#70 = CARTESIAN_POINT('',(-0.391289532185,1.853534020483E-02,
    -1.126318097115));
#71 = CARTESIAN_POINT('',(-0.564793900462,2.81281640067E-02,
    -0.432313710153));
#72 = CARTESIAN_POINT('',(-0.717889290368,2.615537804566E-02,
    0.291012166232));
#73 = CARTESIAN_POINT('',(-0.901055157185,3.757830709219E-02,
    0.978174030781));
#74 = DEFINITIONAL_REPRESENTATION('',(#75),#82);
#75 = B_SPLINE_CURVE_WITH_KNOTS('',5,(#76,#77,#78,#79,#80,#81),
  .UNSPECIFIED.,.F.,.F.,(6,6),(0.,1.),.PIECEWISE_BEZIER_KNOTS.);
#76 = CARTESIAN_POINT('',(1.003748128872,7.171467174158E-02));
#77 = CARTESIAN_POINT('',(1.003071421006,0.26111302336));
#78 = CARTESIAN_POINT('',(1.00235540355,0.428946835428));
#79 = CARTESIAN_POINT('',(1.002198108034,0.657675528858));
#80 = CARTESIAN_POINT('',(1.001942930369,0.812410867717));
#81 = CARTESIAN_POINT('',(1.00175797288,1.003785101592));
#82 = ( GEOMETRIC_REPRESENTATION_CONTEXT(2) 
PARAMETRIC_REPRESENTATION_CONTEXT() REPRESENTATION_CONTEXT('2D SPACE',''
  ) );
#83 = ORIENTED_EDGE('',*,*,#84,.F.);
#84 = EDGE_CURVE('',#85,#24,#87,.T.);
#85 = VERTEX_POINT('',#86);
#86 = CARTESIAN_POINT('',(0.940246204535,4.091537402322E-03,
    0.99669756492));
#87 = SURFACE_CURVE('',#88,(#93,#135),.PCURVE_S1.);
#88 = B_SPLINE_CURVE_WITH_KNOTS('',3,(#89,#90,#91,#92),.UNSPECIFIED.,.F.
  ,.F.,(4,4),(0.,1.),.PIECEWISE_BEZIER_KNOTS.);
#89 = CARTESIAN_POINT('',(0.940246204535,4.091537402322E-03,
    0.99669756492));
#90 = CARTESIAN_POINT('',(0.854828612696,-1.213339099341,1.000992853589)
  );
#91 = CARTESIAN_POINT('',(-0.84776454216,-1.215351928898,0.997544775906)
  );
#92 = CARTESIAN_POINT('',(-0.921581010024,8.660808904096E-03,
    1.001703863343));
#93 = PCURVE('',#32,#94);
#94 = DEFINITIONAL_REPRESENTATION('',(#95),#134);
#95 = B_SPLINE_CURVE_WITH_KNOTS('',10,(#96,#97,#98,#99,#100,#101,#102,
    #103,#104,#105,#106,#107,#108,#109,#110,#111,#112,#113,#114,#115,
    #116,#117,#118,#119,#120,#121,#122,#123,#124,#125,#126,#127,#128,
    #129,#130,#131,#132,#133),.UNSPECIFIED.,.F.,.F.,(11,9,9,9,11),(0.,
    0.25,0.5,0.75,1.),.UNSPECIFIED.);
#96 = CARTESIAN_POINT('',(1.001783903954,0.980594182742));
#97 = CARTESIAN_POINT('',(0.975476607933,0.980208833113));
#98 = CARTESIAN_POINT('',(1.025779147279,0.980915871371));
#99 = CARTESIAN_POINT('',(0.799793867015,0.977916830886));
#100 = CARTESIAN_POINT('',(1.07382155824,0.98166833679));
#101 = CARTESIAN_POINT('',(0.741362118595,0.977528897879));
#102 = CARTESIAN_POINT('',(0.930362686448,0.980695329198));
#103 = CARTESIAN_POINT('',(0.799432606065,0.979349843731));
#104 = CARTESIAN_POINT('',(0.804263047165,0.980182061805));
#105 = CARTESIAN_POINT('',(0.773328654625,0.980479289228));
#106 = CARTESIAN_POINT('',(0.721384727967,0.9812664275));
#107 = CARTESIAN_POINT('',(0.695820847474,0.981649564207));
#108 = CARTESIAN_POINT('',(0.670621489033,0.982011943343));
#109 = CARTESIAN_POINT('',(0.645743091863,0.982343239761));
#110 = CARTESIAN_POINT('',(0.621142095181,0.982633128319));
#111 = CARTESIAN_POINT('',(0.596774938204,0.982871283872));
#112 = CARTESIAN_POINT('',(0.57259806015,0.983047381277));
#113 = CARTESIAN_POINT('',(0.548567900237,0.983151095389));
#114 = CARTESIAN_POINT('',(0.524640897683,0.983172101065));
#115 = CARTESIAN_POINT('',(0.476906085724,0.983028045254));
#116 = CARTESIAN_POINT('',(0.453066783259,0.982864048008));
#117 = CARTESIAN_POINT('',(0.429200794001,0.982621688633));
#118 = CARTESIAN_POINT('',(0.405253327643,0.982314574345));
#119 = CARTESIAN_POINT('',(0.38116959388,0.981956312357));
#120 = CARTESIAN_POINT('',(0.356894802405,0.981560509881));
#121 = CARTESIAN_POINT('',(0.332374162911,0.981140774133));
#122 = CARTESIAN_POINT('',(0.307552885092,0.980710712325));
#123 = CARTESIAN_POINT('',(0.282376178641,0.980283931671));
#124 = CARTESIAN_POINT('',(0.231202327864,0.9794641471));
#125 = CARTESIAN_POINT('',(0.211155704529,0.978875557707));
#126 = CARTESIAN_POINT('',(0.156733145467,0.979654605478));
#127 = CARTESIAN_POINT('',(0.185704320845,0.977420335233));
#128 = CARTESIAN_POINT('',(0.111248152986,0.979267093265));
#129 = CARTESIAN_POINT('',(7.029307683236E-02,0.980004120665));
#130 = CARTESIAN_POINT('',(0.121596097413,0.977572017195));
#131 = CARTESIAN_POINT('',(1.059131826425E-02,0.981693521231));
#132 = CARTESIAN_POINT('',(2.47009563461E-02,0.980963432602));
#133 = CARTESIAN_POINT('',(-1.782251156795E-03,0.982159690326));
#134 = ( GEOMETRIC_REPRESENTATION_CONTEXT(2) 
PARAMETRIC_REPRESENTATION_CONTEXT() REPRESENTATION_CONTEXT('2D SPACE',''
  ) );
#135 = PCURVE('',#136,#153);
#136 = B_SPLINE_SURFACE_WITH_KNOTS('',3,3,(
    (#137,#138,#139,#140)
    ,(#141,#142,#143,#144)
    ,(#145,#146,#147,#148)
    ,(#149,#150,#151,#152
    )),.UNSPECIFIED.,.F.,.F.,.F.,(4,4),(4,4),(0.,1.),(0.,1.),
  .PIECEWISE_BEZIER_KNOTS.);
#137 = CARTESIAN_POINT('',(0.955581605434,0.998401641846,1.002268910408)
  );
#138 = CARTESIAN_POINT('',(0.955675993238,0.33898186892,0.995697842372)
  );
#139 = CARTESIAN_POINT('',(0.953016290211,-0.311914007982,1.003126030042
    ));
#140 = CARTESIAN_POINT('',(0.957046449184,-0.979625701904,0.997864425182
    ));
#141 = CARTESIAN_POINT('',(0.31040763787,0.991378933415,1.00044960899));
#142 = CARTESIAN_POINT('',(0.31068946433,0.326633699475,1.005372246582)
  );
#143 = CARTESIAN_POINT('',(0.306060303836,-0.327867784493,1.010825605144
    ));
#144 = CARTESIAN_POINT('',(0.307330971187,-0.98467847899,0.997660585011)
  );
#145 = CARTESIAN_POINT('',(-0.336199358788,0.984913356876,1.004908783946
    ));
#146 = CARTESIAN_POINT('',(-0.340788708911,0.343693356018,1.001727452177
    ));
#147 = CARTESIAN_POINT('',(-0.340703254466,-0.336404095521,
    1.006663711046));
#148 = CARTESIAN_POINT('',(-0.343815461665,-0.977877274003,
    1.002804951098));
#149 = CARTESIAN_POINT('',(-0.981918394566,0.994983673096,0.99534291029)
  );
#150 = CARTESIAN_POINT('',(-0.990261396212,0.328456308891,0.997141456947
    ));
#151 = CARTESIAN_POINT('',(-0.9860252425,-0.319480496717,0.991658819559)
  );
#152 = CARTESIAN_POINT('',(-0.990707457066,-0.986949920654,0.99562138319
    ));
#153 = DEFINITIONAL_REPRESENTATION('',(#154),#160);
#154 = B_SPLINE_CURVE_WITH_KNOTS('',4,(#155,#156,#157,#158,#159),
  .UNSPECIFIED.,.F.,.F.,(5,5),(0.,1.),.PIECEWISE_BEZIER_KNOTS.);
#155 = CARTESIAN_POINT('',(7.508286991581E-03,0.504124190633));
#156 = CARTESIAN_POINT('',(4.032043669981E-02,0.966592861054));
#157 = CARTESIAN_POINT('',(0.488834147322,1.113640034486));
#158 = CARTESIAN_POINT('',(0.936569454552,0.962951005272));
#159 = CARTESIAN_POINT('',(0.965913932759,0.497777306982));
#160 = ( GEOMETRIC_REPRESENTATION_CONTEXT(2) 
PARAMETRIC_REPRESENTATION_CONTEXT() REPRESENTATION_CONTEXT('2D SPACE',''
  ) );
#161 = ORIENTED_EDGE('',*,*,#162,.T.);
#162 = EDGE_CURVE('',#85,#163,#165,.T.);
#163 = VERTEX_POINT('',#164);
#164 = CARTESIAN_POINT('',(0.515942504009,5.912737455219E-03,
    -1.000042388837));
#165 = SURFACE_CURVE('',#166,(#170,#178),.PCURVE_S1.);
#166 = B_SPLINE_CURVE_WITH_KNOTS('',2,(#167,#168,#169),.UNSPECIFIED.,.F.
  ,.F.,(3,3),(0.,1.),.PIECEWISE_BEZIER_KNOTS.);
#167 = CARTESIAN_POINT('',(0.940246204535,4.091537402322E-03,
    0.99669756492));
#168 = CARTESIAN_POINT('',(0.729165479757,5.912418749385E-03,
    -1.88627660969E-03));
#169 = CARTESIAN_POINT('',(0.515942504009,5.912737455219E-03,
    -1.000042388837));
#170 = PCURVE('',#32,#171);
#171 = DEFINITIONAL_REPRESENTATION('',(#172),#177);
#172 = B_SPLINE_CURVE_WITH_KNOTS('',3,(#173,#174,#175,#176),
  .UNSPECIFIED.,.F.,.F.,(4,4),(0.,1.),.PIECEWISE_BEZIER_KNOTS.);
#173 = CARTESIAN_POINT('',(1.001783903954,0.980594182742));
#174 = CARTESIAN_POINT('',(1.002125147922,0.661838693699));
#175 = CARTESIAN_POINT('',(1.002459663336,0.358223515333));
#176 = CARTESIAN_POINT('',(1.003708189066,3.696995078448E-02));
#177 = ( GEOMETRIC_REPRESENTATION_CONTEXT(2) 
PARAMETRIC_REPRESENTATION_CONTEXT() REPRESENTATION_CONTEXT('2D SPACE',''
  ) );
#178 = PCURVE('',#57,#179);
#179 = DEFINITIONAL_REPRESENTATION('',(#180),#206);
#180 = B_SPLINE_CURVE_WITH_KNOTS('',3,(#181,#182,#183,#184,#185,#186,
    #187,#188,#189,#190,#191,#192,#193,#194,#195,#196,#197,#198,#199,
    #200,#201,#202,#203,#204,#205),.UNSPECIFIED.,.F.,.F.,(4,1,1,1,1,1,1,
    1,1,1,1,1,1,1,1,1,1,1,1,1,1,1,4),(0.,4.545454545455E-02,
    9.090909090909E-02,0.136363636364,0.181818181818,0.227272727273,
    0.272727272727,0.318181818182,0.363636363636,0.409090909091,
    0.454545454545,0.5,0.545454545455,0.590909090909,0.636363636364,
    0.681818181818,0.727272727273,0.772727272727,0.818181818182,
    0.863636363636,0.909090909091,0.954545454545,1.),
  .QUASI_UNIFORM_KNOTS.);
#181 = CARTESIAN_POINT('',(-1.758030041422E-03,1.003723112027));
#182 = CARTESIAN_POINT('',(-1.764703106614E-03,0.99681629163));
#183 = CARTESIAN_POINT('',(-1.785547157265E-03,0.975146990825));
#184 = CARTESIAN_POINT('',(-1.830590021395E-03,0.929620202563));
#185 = CARTESIAN_POINT('',(-1.875632311169E-03,0.887604477876));
#186 = CARTESIAN_POINT('',(-1.924608028581E-03,0.844669565604));
#187 = CARTESIAN_POINT('',(-1.976730425734E-03,0.802001819689));
#188 = CARTESIAN_POINT('',(-2.032505450507E-03,0.759281997624));
#189 = CARTESIAN_POINT('',(-2.092123507669E-03,0.71659372411));
#190 = CARTESIAN_POINT('',(-2.155893767805E-03,0.673912207709));
#191 = CARTESIAN_POINT('',(-2.224131539967E-03,0.631241314775));
#192 = CARTESIAN_POINT('',(-2.297192588204E-03,0.588576918669));
#193 = CARTESIAN_POINT('',(-2.375468534959E-03,0.545916796525));
#194 = CARTESIAN_POINT('',(-2.45939309656E-03,0.503258052831));
#195 = CARTESIAN_POINT('',(-2.549446199627E-03,0.460597884923));
#196 = CARTESIAN_POINT('',(-2.646158190101E-03,0.417933453285));
#197 = CARTESIAN_POINT('',(-2.750118335727E-03,0.375261992668));
#198 = CARTESIAN_POINT('',(-2.861968616839E-03,0.33258086005));
#199 = CARTESIAN_POINT('',(-2.982454496432E-03,0.289887602436));
#200 = CARTESIAN_POINT('',(-3.112264573673E-03,0.247180019777));
#201 = CARTESIAN_POINT('',(-3.252659166606E-03,0.204456242431));
#202 = CARTESIAN_POINT('',(-3.403154642701E-03,0.161714773765));
#203 = CARTESIAN_POINT('',(-3.570194442854E-03,0.118954679911));
#204 = CARTESIAN_POINT('',(-3.679940522928E-03,9.043506123068E-02));
#205 = CARTESIAN_POINT('',(-3.732459208227E-03,7.617190065752E-02));
#206 = ( GEOMETRIC_REPRESENTATION_CONTEXT(2) 
PARAMETRIC_REPRESENTATION_CONTEXT() REPRESENTATION_CONTEXT('2D SPACE',''
  ) );
#207 = ORIENTED_EDGE('',*,*,#208,.F.);
#208 = EDGE_CURVE('',#22,#163,#209,.T.);
#209 = SURFACE_CURVE('',#210,(#215,#227),.PCURVE_S1.);
#210 = B_SPLINE_CURVE_WITH_KNOTS('',3,(#211,#212,#213,#214),
  .UNSPECIFIED.,.F.,.F.,(4,4),(0.,1.),.PIECEWISE_BEZIER_KNOTS.);
#211 = CARTESIAN_POINT('',(-0.52156423529,6.529833578194E-03,
    -0.999353652199));
#212 = CARTESIAN_POINT('',(-0.485471276767,-0.666105296137,
    -0.995387194324));
#213 = CARTESIAN_POINT('',(0.483896151564,-0.663713765051,
    -1.004655391552));
#214 = CARTESIAN_POINT('',(0.515942504009,5.912737455219E-03,
    -1.000042388837));
#215 = PCURVE('',#32,#216);
#216 = DEFINITIONAL_REPRESENTATION('',(#217),#226);
#217 = B_SPLINE_CURVE_WITH_KNOTS('',7,(#218,#219,#220,#221,#222,#223,
    #224,#225),.UNSPECIFIED.,.F.,.F.,(8,8),(0.,1.),
  .PIECEWISE_BEZIER_KNOTS.);
#218 = CARTESIAN_POINT('',(-2.777971649228E-03,3.638576009556E-02));
#219 = CARTESIAN_POINT('',(0.177510686605,3.858987586632E-02));
#220 = CARTESIAN_POINT('',(0.22827197929,4.280061246984E-02));
#221 = CARTESIAN_POINT('',(0.575658861802,4.507951190015E-02));
#222 = CARTESIAN_POINT('',(0.41998695129,4.071310498268E-02));
#223 = CARTESIAN_POINT('',(0.780962219211,4.072008117147E-02));
#224 = CARTESIAN_POINT('',(0.827798908593,3.455859972387E-02));
#225 = CARTESIAN_POINT('',(1.003708189066,3.696995078448E-02));
#226 = ( GEOMETRIC_REPRESENTATION_CONTEXT(2) 
PARAMETRIC_REPRESENTATION_CONTEXT() REPRESENTATION_CONTEXT('2D SPACE',''
  ) );
#227 = PCURVE('',#228,#245);
#228 = B_SPLINE_SURFACE_WITH_KNOTS('',3,3,(
    (#229,#230,#231,#232)
    ,(#233,#234,#235,#236)
    ,(#237,#238,#239,#240)
    ,(#241,#242,#243,#244
    )),.UNSPECIFIED.,.F.,.F.,.F.,(4,4),(4,4),(0.,1.),(0.,1.),
  .PIECEWISE_BEZIER_KNOTS.);
#229 = CARTESIAN_POINT('',(-0.54793971777,0.561716973782,-0.997288286686
    ));
#230 = CARTESIAN_POINT('',(-0.545639185177,0.196591987217,
    -1.002634898464));
#231 = CARTESIAN_POINT('',(-0.544414382959,-0.166915589147,
    -1.000909173965));
#232 = CARTESIAN_POINT('',(-0.54256862402,-0.530568182468,
    -0.998355448246));
#233 = CARTESIAN_POINT('',(-0.185298845325,0.558267340071,
    -1.003128946398));
#234 = CARTESIAN_POINT('',(-0.181240294509,0.198318755546,-0.99663330202
    ));
#235 = CARTESIAN_POINT('',(-0.184586913205,-0.167737814962,
    -0.99694144387));
#236 = CARTESIAN_POINT('',(-0.178736414422,-0.531207683459,
    -1.002210699188));
#237 = CARTESIAN_POINT('',(0.183174569269,0.563959227356,-0.997222384727
    ));
#238 = CARTESIAN_POINT('',(0.176519913087,0.198162855186,-0.99874287534)
  );
#239 = CARTESIAN_POINT('',(0.187829551106,-0.16614945812,-0.997755287947
    ));
#240 = CARTESIAN_POINT('',(0.178998640701,-0.525364318632,
    -1.001742702712));
#241 = CARTESIAN_POINT('',(0.54092746973,0.561228692532,-0.997669756413)
  );
#242 = CARTESIAN_POINT('',(0.546207542239,0.194430685243,-0.999638796193
    ));
#243 = CARTESIAN_POINT('',(0.540654211287,-0.169476323418,
    -0.999018426176));
#244 = CARTESIAN_POINT('',(0.54922825098,-0.538380682468,-0.996481478214
    ));
#245 = DEFINITIONAL_REPRESENTATION('',(#246),#252);
#246 = B_SPLINE_CURVE_WITH_KNOTS('',4,(#247,#248,#249,#250,#251),
  .UNSPECIFIED.,.F.,.F.,(5,5),(0.,1.),.PIECEWISE_BEZIER_KNOTS.);
#247 = CARTESIAN_POINT('',(2.160407629921E-02,0.507771361718));
#248 = CARTESIAN_POINT('',(4.446641610501E-02,0.969831984069));
#249 = CARTESIAN_POINT('',(0.497363017915,1.127395650752));
#250 = CARTESIAN_POINT('',(0.951262834913,0.964107901802));
#251 = CARTESIAN_POINT('',(0.974297433342,0.506054866242));
#252 = ( GEOMETRIC_REPRESENTATION_CONTEXT(2) 
PARAMETRIC_REPRESENTATION_CONTEXT() REPRESENTATION_CONTEXT('2D SPACE',''
  ) );
#253 = ADVANCED_FACE('',(#254),#57,.T.);
#254 = FACE_BOUND('',#255,.T.);
#255 = EDGE_LOOP('',(#256,#288,#289,#331));
#256 = ORIENTED_EDGE('',*,*,#257,.T.);
#257 = EDGE_CURVE('',#163,#22,#258,.T.);
#258 = SURFACE_CURVE('',#259,(#264,#278),.PCURVE_S1.);
#259 = B_SPLINE_CURVE_WITH_KNOTS('',3,(#260,#261,#262,#263),
  .UNSPECIFIED.,.F.,.F.,(4,4),(0.,1.),.PIECEWISE_BEZIER_KNOTS.);
#260 = CARTESIAN_POINT('',(0.515942504009,5.912737455219E-03,
    -1.000042388837));
#261 = CARTESIAN_POINT('',(0.489790973048,0.69815377968,-0.998088706867)
  );
#262 = CARTESIAN_POINT('',(-0.489167259163,0.695311920505,
    -1.000668777759));
#263 = CARTESIAN_POINT('',(-0.52156423529,6.529833578194E-03,
    -0.999353652199));
#264 = PCURVE('',#57,#265);
#265 = DEFINITIONAL_REPRESENTATION('',(#266),#277);
#266 = B_SPLINE_CURVE_WITH_KNOTS('',9,(#267,#268,#269,#270,#271,#272,
    #273,#274,#275,#276),.UNSPECIFIED.,.F.,.F.,(10,10),(0.,1.),
  .PIECEWISE_BEZIER_KNOTS.);
#267 = CARTESIAN_POINT('',(-3.732459208227E-03,7.617190065752E-02));
#268 = CARTESIAN_POINT('',(0.13182562819,7.557217354208E-02));
#269 = CARTESIAN_POINT('',(8.066124914004E-02,7.579853160046E-02));
#270 = CARTESIAN_POINT('',(0.715716234096,7.298896338083E-02));
#271 = CARTESIAN_POINT('',(-0.144819828054,7.679609005386E-02));
#272 = CARTESIAN_POINT('',(1.14699292365,7.108093760426E-02));
#273 = CARTESIAN_POINT('',(0.266647168892,7.497570500779E-02));
#274 = CARTESIAN_POINT('',(0.932913995869,7.202805142312E-02));
#275 = CARTESIAN_POINT('',(0.869234656934,7.230977733845E-02));
#276 = CARTESIAN_POINT('',(1.003748128872,7.171467174158E-02));
#277 = ( GEOMETRIC_REPRESENTATION_CONTEXT(2) 
PARAMETRIC_REPRESENTATION_CONTEXT() REPRESENTATION_CONTEXT('2D SPACE',''
  ) );
#278 = PCURVE('',#228,#279);
#279 = DEFINITIONAL_REPRESENTATION('',(#280),#287);
#280 = B_SPLINE_CURVE_WITH_KNOTS('',5,(#281,#282,#283,#284,#285,#286),
  .UNSPECIFIED.,.F.,.F.,(6,6),(0.,1.),.PIECEWISE_BEZIER_KNOTS.);
#281 = CARTESIAN_POINT('',(0.974297433342,0.506054866242));
#282 = CARTESIAN_POINT('',(0.960605740598,0.127637574411));
#283 = CARTESIAN_POINT('',(0.6826461502,-5.770130386359E-02));
#284 = CARTESIAN_POINT('',(0.320970939509,-6.28646193847E-02));
#285 = CARTESIAN_POINT('',(4.11461059427E-02,0.129246441088));
#286 = CARTESIAN_POINT('',(2.160407629921E-02,0.507771361718));
#287 = ( GEOMETRIC_REPRESENTATION_CONTEXT(2) 
PARAMETRIC_REPRESENTATION_CONTEXT() REPRESENTATION_CONTEXT('2D SPACE',''
  ) );
#288 = ORIENTED_EDGE('',*,*,#21,.T.);
#289 = ORIENTED_EDGE('',*,*,#290,.T.);
#290 = EDGE_CURVE('',#24,#85,#291,.T.);
#291 = SURFACE_CURVE('',#292,(#298,#322),.PCURVE_S1.);
#292 = B_SPLINE_CURVE_WITH_KNOTS('',4,(#293,#294,#295,#296,#297),
  .UNSPECIFIED.,.F.,.F.,(5,5),(0.,1.),.PIECEWISE_BEZIER_KNOTS.);
#293 = CARTESIAN_POINT('',(-0.921581010024,8.660808904096E-03,
    1.001703863343));
#294 = CARTESIAN_POINT('',(-0.953759474,0.727754571072,1.01095338474));
#295 = CARTESIAN_POINT('',(3.117955514057E-03,1.540370483394,
    0.984368871134));
#296 = CARTESIAN_POINT('',(0.998914058803,0.72213521875,1.011568506006)
  );
#297 = CARTESIAN_POINT('',(0.940246204535,4.091537402322E-03,
    0.99669756492));
#298 = PCURVE('',#57,#299);
#299 = DEFINITIONAL_REPRESENTATION('',(#300),#321);
#300 = B_SPLINE_CURVE_WITH_KNOTS('',10,(#301,#302,#303,#304,#305,#306,
    #307,#308,#309,#310,#311,#312,#313,#314,#315,#316,#317,#318,#319,
    #320),.UNSPECIFIED.,.F.,.F.,(11,9,11),(0.,0.5,1.),.UNSPECIFIED.);
#301 = CARTESIAN_POINT('',(1.00175797288,1.003785101592));
#302 = CARTESIAN_POINT('',(0.961284126584,1.003671704831));
#303 = CARTESIAN_POINT('',(0.996185223686,1.003799967652));
#304 = CARTESIAN_POINT('',(0.694389279638,1.003039254811));
#305 = CARTESIAN_POINT('',(1.097749915822,1.004075177124));
#306 = CARTESIAN_POINT('',(0.49077144826,1.002876473157));
#307 = CARTESIAN_POINT('',(0.880569295485,1.0037689846));
#308 = CARTESIAN_POINT('',(0.583904525553,1.003508139176));
#309 = CARTESIAN_POINT('',(0.613915335263,1.003500697818));
#310 = CARTESIAN_POINT('',(0.550065593302,1.003810682193));
#311 = CARTESIAN_POINT('',(0.448676660475,1.003750248053));
#312 = CARTESIAN_POINT('',(0.406472941587,1.00333049757));
#313 = CARTESIAN_POINT('',(0.315501556484,1.003888533766));
#314 = CARTESIAN_POINT('',(0.336328849623,1.003198830935));
#315 = CARTESIAN_POINT('',(0.221249596644,1.003389922717));
#316 = CARTESIAN_POINT('',(0.140202903914,1.003733258832));
#317 = CARTESIAN_POINT('',(0.183864418709,1.003202360226));
#318 = CARTESIAN_POINT('',(3.762993732302E-02,1.003682894852));
#319 = CARTESIAN_POINT('',(3.883289084497E-02,1.003617480303));
#320 = CARTESIAN_POINT('',(-1.758030041422E-03,1.003723112027));
#321 = ( GEOMETRIC_REPRESENTATION_CONTEXT(2) 
PARAMETRIC_REPRESENTATION_CONTEXT() REPRESENTATION_CONTEXT('2D SPACE',''
  ) );
#322 = PCURVE('',#136,#323);
#323 = DEFINITIONAL_REPRESENTATION('',(#324),#330);
#324 = B_SPLINE_CURVE_WITH_KNOTS('',4,(#325,#326,#327,#328,#329),
  .UNSPECIFIED.,.F.,.F.,(5,5),(0.,1.),.PIECEWISE_BEZIER_KNOTS.);
#325 = CARTESIAN_POINT('',(0.965913932759,0.497777306982));
#326 = CARTESIAN_POINT('',(0.983100523237,0.133361270825));
#327 = CARTESIAN_POINT('',(0.493836997924,-0.281986862781));
#328 = CARTESIAN_POINT('',(-2.248276856916E-02,0.140430406356));
#329 = CARTESIAN_POINT('',(7.508286991581E-03,0.504124190633));
#330 = ( GEOMETRIC_REPRESENTATION_CONTEXT(2) 
PARAMETRIC_REPRESENTATION_CONTEXT() REPRESENTATION_CONTEXT('2D SPACE',''
  ) );
#331 = ORIENTED_EDGE('',*,*,#162,.T.);
#332 = ADVANCED_FACE('',(#333),#136,.T.);
#333 = FACE_BOUND('',#334,.F.);
#334 = EDGE_LOOP('',(#335,#336));
#335 = ORIENTED_EDGE('',*,*,#290,.T.);
#336 = ORIENTED_EDGE('',*,*,#84,.T.);
#337 = ADVANCED_FACE('',(#338),#228,.T.);
#338 = FACE_BOUND('',#339,.F.);
#339 = EDGE_LOOP('',(#340,#341));
#340 = ORIENTED_EDGE('',*,*,#208,.T.);
#341 = ORIENTED_EDGE('',*,*,#257,.T.);
#342 = ( GEOMETRIC_REPRESENTATION_CONTEXT(3) 
GLOBAL_UNCERTAINTY_ASSIGNED_CONTEXT((#346)) GLOBAL_UNIT_ASSIGNED_CONTEXT
((#343,#344,#345)) REPRESENTATION_CONTEXT('Context #1',
  '3D Context with UNIT and UNCERTAINTY') );
#343 = ( LENGTH_UNIT() NAMED_UNIT(*) SI_UNIT(.MILLI.,.METRE.) );
#344 = ( NAMED_UNIT(*) PLANE_ANGLE_UNIT() SI_UNIT($,.RADIAN.) );
#345 = ( NAMED_UNIT(*) SI_UNIT($,.STERADIAN.) SOLID_ANGLE_UNIT() );
#346 = UNCERTAINTY_MEASURE_WITH_UNIT(LENGTH_MEASURE(0.1),#343,
  'distance_accuracy_value','confusion accuracy');
#347 = PRODUCT_RELATED_PRODUCT_CATEGORY('detail',$,(#7));
#348 = PRODUCT_CATEGORY_RELATIONSHIP('','',#349,#347);
#349 = PRODUCT_CATEGORY('part',$);
#350 = CC_DESIGN_PERSON_AND_ORGANIZATION_ASSIGNMENT(#351,#354,(#6,#5));
#351 = PERSON_AND_ORGANIZATION(#352,#353);
#352 = PERSON('IP127.0.1,workstation-5','','workstation-5,,,',$,$,$);
#353 = ORGANIZATION('IP127.0.1','Unspecified','');
#354 = PERSON_AND_ORGANIZATION_ROLE('creator');
#355 = CC_DESIGN_PERSON_AND_ORGANIZATION_ASSIGNMENT(#351,#356,(#7));
#356 = PERSON_AND_ORGANIZATION_ROLE('design_owner');
#357 = CC_DESIGN_PERSON_AND_ORGANIZATION_ASSIGNMENT(#351,#358,(#6));
#358 = PERSON_AND_ORGANIZATION_ROLE('design_supplier');
#359 = CC_DESIGN_PERSON_AND_ORGANIZATION_ASSIGNMENT(#351,#360,(#361));
#360 = PERSON_AND_ORGANIZATION_ROLE('classification_officer');
#361 = SECURITY_CLASSIFICATION('','',#362);
#362 = SECURITY_CLASSIFICATION_LEVEL('unclassified');
#363 = CC_DESIGN_SECURITY_CLASSIFICATION(#361,(#6));
#364 = CC_DESIGN_DATE_AND_TIME_ASSIGNMENT(#365,#369,(#5));
#365 = DATE_AND_TIME(#366,#367);
#366 = CALENDAR_DATE(2024,25,11);
#367 = LOCAL_TIME(8,46,$,#368);
#368 = COORDINATED_UNIVERSAL_TIME_OFFSET(5,$,.BEHIND.);
#369 = DATE_TIME_ROLE('creation_date');
#370 = CC_DESIGN_DATE_AND_TIME_ASSIGNMENT(#365,#371,(#361));
#371 = DATE_TIME_ROLE('classification_date');
#372 = CC_DESIGN_APPROVAL(#373,(#6,#5,#361));
#373 = APPROVAL(#374,'');
#374 = APPROVAL_STATUS('not_yet_approved');
#375 = APPROVAL_PERSON_ORGANIZATION(#351,#373,#376);
#376 = APPROVAL_ROLE('approver');
#377 = APPROVAL_DATE_TIME(#365,#373);
ENDSEC;
END-ISO-10303-21;
