ISO-10303-21;
HEADER;
FILE_DESCRIPTION(('Open CASCADE Model'),'2;1');
FILE_NAME('Open CASCADE Shape Model','2024-12-02T23:22:44',('Author'),(
    'Open CASCADE'),'Open CASCADE STEP processor 7.5','Open CASCADE 7.5'
  ,'Unknown');
FILE_SCHEMA(('CONFIG_CONTROL_DESIGN'));
ENDSEC;
DATA;
#1 = APPLICATION_PROTOCOL_DEFINITION('international standard',
  'config_control_design',1994,#2);
#2 = APPLICATION_CONTEXT(
'configuration controlled 3D designs of mechanical parts and assemblies'
  );
#3 = SHAPE_DEFINITION_REPRESENTATION(#4,#10);
#4 = PRODUCT_DEFINITION_SHAPE('','',#5);
#5 = PRODUCT_DEFINITION('design','',#6,#9);
#6 = PRODUCT_DEFINITION_FORMATION_WITH_SPECIFIED_SOURCE('','',#7,
  .NOT_KNOWN.);
#7 = PRODUCT('Open CASCADE STEP translator 7.5 5344',
  'Open CASCADE STEP translator 7.5 5344','',(#8));
#8 = MECHANICAL_CONTEXT('',#2,'mechanical');
#9 = DESIGN_CONTEXT('',#2,'design');
#10 = ADVANCED_BREP_SHAPE_REPRESENTATION('',(#11,#15),#312);
#11 = AXIS2_PLACEMENT_3D('',#12,#13,#14);
#12 = CARTESIAN_POINT('',(0.,0.,0.));
#13 = DIRECTION('',(0.,0.,1.));
#14 = DIRECTION('',(1.,0.,-0.));
#15 = MANIFOLD_SOLID_BREP('',#16);
#16 = CLOSED_SHELL('',(#17,#241,#302,#307));
#17 = ADVANCED_FACE('',(#18),#33,.T.);
#18 = FACE_BOUND('',#19,.T.);
#19 = EDGE_LOOP('',(#20,#124,#166,#218));
#20 = ORIENTED_EDGE('',*,*,#21,.T.);
#21 = EDGE_CURVE('',#22,#24,#26,.T.);
#22 = VERTEX_POINT('',#23);
#23 = CARTESIAN_POINT('',(0.865400061011,-1.001458307107,
    -1.714346309503E-03));
#24 = VERTEX_POINT('',#25);
#25 = CARTESIAN_POINT('',(-0.857453271747,-0.998878459136,
    1.367009865741E-03));
#26 = SURFACE_CURVE('',#27,(#32,#78),.PCURVE_S1.);
#27 = B_SPLINE_CURVE_WITH_KNOTS('',3,(#28,#29,#30,#31),.UNSPECIFIED.,.F.
  ,.F.,(4,4),(0.,1.),.PIECEWISE_BEZIER_KNOTS.);
#28 = CARTESIAN_POINT('',(0.865400061011,-1.001458307107,
    -1.714346309503E-03));
#29 = CARTESIAN_POINT('',(0.825008728369,-0.993546044063,-1.171098738416
    ));
#30 = CARTESIAN_POINT('',(-0.826953953532,-1.001417119587,
    -1.168401151977));
#31 = CARTESIAN_POINT('',(-0.857453271747,-0.998878459136,
    1.367009865741E-03));
#32 = PCURVE('',#33,#50);
#33 = B_SPLINE_SURFACE_WITH_KNOTS('',3,3,(
    (#34,#35,#36,#37)
    ,(#38,#39,#40,#41)
    ,(#42,#43,#44,#45)
    ,(#46,#47,#48,#49
    )),.UNSPECIFIED.,.F.,.F.,.F.,(4,4),(4,4),(0.,1.),(0.,1.),
  .PIECEWISE_BEZIER_KNOTS.);
#34 = CARTESIAN_POINT('',(-0.922882378101,1.053194046021,
    6.460620090365E-03));
#35 = CARTESIAN_POINT('',(-0.926147867528,0.350615233429,
    1.773566266545E-02));
#36 = CARTESIAN_POINT('',(-0.932693361247,-0.362140250742,
    5.122940395041E-03));
#37 = CARTESIAN_POINT('',(-0.925812065601,-1.058134078979,
    1.821948215365E-03));
#38 = CARTESIAN_POINT('',(-0.95778060342,1.061929097807,-1.197317479136)
  );
#39 = CARTESIAN_POINT('',(-0.948818202329,0.348699761962,-1.202719336299
    ));
#40 = CARTESIAN_POINT('',(-0.945884623968,-0.332500552861,
    -1.205336229153));
#41 = CARTESIAN_POINT('',(-0.95869293162,-1.060131300469,-1.202918915509
    ));
#42 = CARTESIAN_POINT('',(0.956147090083,1.06229050563,-1.169950805406)
  );
#43 = CARTESIAN_POINT('',(0.953681789995,0.368445689463,-1.185661882765)
  );
#44 = CARTESIAN_POINT('',(0.944451435094,-0.35724573465,-1.172328737711)
  );
#45 = CARTESIAN_POINT('',(0.955372503214,-1.043723952016,-1.191727742142
    ));
#46 = CARTESIAN_POINT('',(0.931121528149,1.054170608521,
    1.915593259037E-02));
#47 = CARTESIAN_POINT('',(0.933491313226,0.343856459156,
    1.967884389412E-02));
#48 = CARTESIAN_POINT('',(0.924353291048,-0.355236445917,
    1.845484853561E-02));
#49 = CARTESIAN_POINT('',(0.932586371899,-1.063993453979,
    1.427312009037E-02));
#50 = DEFINITIONAL_REPRESENTATION('',(#51),#77);
#51 = B_SPLINE_CURVE_WITH_KNOTS('',3,(#52,#53,#54,#55,#56,#57,#58,#59,
    #60,#61,#62,#63,#64,#65,#66,#67,#68,#69,#70,#71,#72,#73,#74,#75,#76)
  ,.UNSPECIFIED.,.F.,.F.,(4,1,1,1,1,1,1,1,1,1,1,1,1,1,1,1,1,1,1,1,1,1,4)
  ,(0.,4.545454545455E-02,9.090909090909E-02,0.136363636364,
    0.181818181818,0.227272727273,0.272727272727,0.318181818182,
    0.363636363636,0.409090909091,0.454545454545,0.5,0.545454545455,
    0.590909090909,0.636363636364,0.681818181818,0.727272727273,
    0.772727272727,0.818181818182,0.863636363636,0.909090909091,
    0.954545454545,1.),.QUASI_UNIFORM_KNOTS.);
#52 = CARTESIAN_POINT('',(0.995542150264,0.970371699136));
#53 = CARTESIAN_POINT('',(0.979800731965,0.970581535014));
#54 = CARTESIAN_POINT('',(0.947758073401,0.970980378881));
#55 = CARTESIAN_POINT('',(0.898872894115,0.97151573854));
#56 = CARTESIAN_POINT('',(0.84995531866,0.971988556473));
#57 = CARTESIAN_POINT('',(0.802037319456,0.972396442963));
#58 = CARTESIAN_POINT('',(0.755673288927,0.972736155463));
#59 = CARTESIAN_POINT('',(0.71089679461,0.973006567104));
#60 = CARTESIAN_POINT('',(0.66743940144,0.973209705803));
#61 = CARTESIAN_POINT('',(0.624952626144,0.97334999332));
#62 = CARTESIAN_POINT('',(0.583112175204,0.973433108112));
#63 = CARTESIAN_POINT('',(0.541645369911,0.973465061883));
#64 = CARTESIAN_POINT('',(0.500322239714,0.9734515669));
#65 = CARTESIAN_POINT('',(0.458933495913,0.973397640259));
#66 = CARTESIAN_POINT('',(0.417264635136,0.97330742368));
#67 = CARTESIAN_POINT('',(0.375070190141,0.973184275734));
#68 = CARTESIAN_POINT('',(0.332053144955,0.97303130399));
#69 = CARTESIAN_POINT('',(0.287862588352,0.972852629786));
#70 = CARTESIAN_POINT('',(0.242142313937,0.97265573059));
#71 = CARTESIAN_POINT('',(0.194683979887,0.972454493472));
#72 = CARTESIAN_POINT('',(0.145719334342,0.972270330292));
#73 = CARTESIAN_POINT('',(9.61109306274E-02,0.972123800506));
#74 = CARTESIAN_POINT('',(4.710139185749E-02,0.972020157242));
#75 = CARTESIAN_POINT('',(1.526631178564E-02,0.971963364919));
#76 = CARTESIAN_POINT('',(-3.04229549061E-04,0.971935386163));
#77 = ( GEOMETRIC_REPRESENTATION_CONTEXT(2) 
PARAMETRIC_REPRESENTATION_CONTEXT() REPRESENTATION_CONTEXT('2D SPACE',''
  ) );
#78 = PCURVE('',#79,#96);
#79 = B_SPLINE_SURFACE_WITH_KNOTS('',3,3,(
    (#80,#81,#82,#83)
    ,(#84,#85,#86,#87)
    ,(#88,#89,#90,#91)
    ,(#92,#93,#94,#95
    )),.UNSPECIFIED.,.F.,.F.,.F.,(4,4),(4,4),(0.,1.),(0.,1.),
  .PIECEWISE_BEZIER_KNOTS.);
#80 = CARTESIAN_POINT('',(-0.864937901497,-0.998943984509,-0.86808770895
    ));
#81 = CARTESIAN_POINT('',(-0.862543324504,-1.001881372204,
    -0.291882461847));
#82 = CARTESIAN_POINT('',(-0.859076105078,-0.997891627575,0.288034132112
    ));
#83 = CARTESIAN_POINT('',(-0.855172276497,-1.000247478485,0.8638458848)
  );
#84 = CARTESIAN_POINT('',(-0.291680772771,-0.997343514364,
    -0.864392041408));
#85 = CARTESIAN_POINT('',(-0.284990432507,-1.007831426424,
    -0.279409589981));
#86 = CARTESIAN_POINT('',(-0.275942904601,-0.995209054385,0.278428806539
    ));
#87 = CARTESIAN_POINT('',(-0.28335474588,-1.004347757159,0.863142166531)
  );
#88 = CARTESIAN_POINT('',(0.290235556455,-1.003461972382,-0.857949718996
    ));
#89 = CARTESIAN_POINT('',(0.296016600019,-1.001392263888,-0.29725544597)
  );
#90 = CARTESIAN_POINT('',(0.292600079912,-1.00565702678,0.28969179463));
#91 = CARTESIAN_POINT('',(0.301020806421,-0.999618782552,0.85608268073)
  );
#92 = CARTESIAN_POINT('',(0.868460536003,-0.997095525265,-0.86711114645)
  );
#93 = CARTESIAN_POINT('',(0.865469422735,-0.99306152173,-0.286809732364)
  );
#94 = CARTESIAN_POINT('',(0.876430517869,-0.995495188258,0.287657126682)
  );
#95 = CARTESIAN_POINT('',(0.872366786003,-0.994650304317,0.8618927598));
#96 = DEFINITIONAL_REPRESENTATION('',(#97),#123);
#97 = B_SPLINE_CURVE_WITH_KNOTS('',3,(#98,#99,#100,#101,#102,#103,#104,
    #105,#106,#107,#108,#109,#110,#111,#112,#113,#114,#115,#116,#117,
    #118,#119,#120,#121,#122),.UNSPECIFIED.,.F.,.F.,(4,1,1,1,1,1,1,1,1,1
    ,1,1,1,1,1,1,1,1,1,1,1,1,4),(0.,4.545454545455E-02,
    9.090909090909E-02,0.136363636364,0.181818181818,0.227272727273,
    0.272727272727,0.318181818182,0.363636363636,0.409090909091,
    0.454545454545,0.5,0.545454545455,0.590909090909,0.636363636364,
    0.681818181818,0.727272727273,0.772727272727,0.818181818182,
    0.863636363636,0.909090909091,0.954545454545,1.),
  .QUASI_UNIFORM_KNOTS.);
#98 = CARTESIAN_POINT('',(0.996816075815,0.499216663256));
#99 = CARTESIAN_POINT('',(0.995960746702,0.468449578994));
#100 = CARTESIAN_POINT('',(0.990361571241,0.409777747328));
#101 = CARTESIAN_POINT('',(0.971344131913,0.330258013708));
#102 = CARTESIAN_POINT('',(0.942729612924,0.259132045905));
#103 = CARTESIAN_POINT('',(0.905628087565,0.196288975626));
#104 = CARTESIAN_POINT('',(0.861168304245,0.141672798404));
#105 = CARTESIAN_POINT('',(0.810471264306,9.528702966691E-02));
#106 = CARTESIAN_POINT('',(0.754622662118,5.725375566577E-02));
#107 = CARTESIAN_POINT('',(0.694673724924,2.753713472912E-02));
#108 = CARTESIAN_POINT('',(0.631624738774,6.800097695562E-03));
#109 = CARTESIAN_POINT('',(0.566531857596,-6.998629150952E-03));
#110 = CARTESIAN_POINT('',(0.500118750383,-2.291231244002E-03));
#111 = CARTESIAN_POINT('',(0.434044079097,-7.322096025287E-03));
#112 = CARTESIAN_POINT('',(0.368655279797,8.301744990633E-03));
#113 = CARTESIAN_POINT('',(0.305348847832,2.902978619214E-02));
#114 = CARTESIAN_POINT('',(0.245097663776,5.898304323864E-02));
#115 = CARTESIAN_POINT('',(0.189002750459,9.705376007225E-02));
#116 = CARTESIAN_POINT('',(0.138140468569,0.143555047657));
#117 = CARTESIAN_POINT('',(9.359746678425E-02,0.198404635128));
#118 = CARTESIAN_POINT('',(5.645211176268E-02,0.26158547669));
#119 = CARTESIAN_POINT('',(2.776629023833E-02,0.333028744735));
#120 = CARTESIAN_POINT('',(8.576752312249E-03,0.412675094556));
#121 = CARTESIAN_POINT('',(2.787411620919E-03,0.471258946847));
#122 = CARTESIAN_POINT('',(1.813179486678E-03,0.501922755019));
#123 = ( GEOMETRIC_REPRESENTATION_CONTEXT(2) 
PARAMETRIC_REPRESENTATION_CONTEXT() REPRESENTATION_CONTEXT('2D SPACE',''
  ) );
#124 = ORIENTED_EDGE('',*,*,#125,.T.);
#125 = EDGE_CURVE('',#24,#126,#128,.T.);
#126 = VERTEX_POINT('',#127);
#127 = CARTESIAN_POINT('',(-0.864024902383,0.99499130249,
    -2.609916341801E-03));
#128 = SURFACE_CURVE('',#129,(#133,#141),.PCURVE_S1.);
#129 = B_SPLINE_CURVE_WITH_KNOTS('',2,(#130,#131,#132),.UNSPECIFIED.,.F.
  ,.F.,(3,3),(0.,1.),.PIECEWISE_BEZIER_KNOTS.);
#130 = CARTESIAN_POINT('',(-0.857453271747,-0.998878459136,
    1.367009865741E-03));
#131 = CARTESIAN_POINT('',(-0.861916222888,-1.823735104436E-03,
    -8.996239703129E-03));
#132 = CARTESIAN_POINT('',(-0.864024902383,0.99499130249,
    -2.609916341801E-03));
#133 = PCURVE('',#33,#134);
#134 = DEFINITIONAL_REPRESENTATION('',(#135),#140);
#135 = B_SPLINE_CURVE_WITH_KNOTS('',3,(#136,#137,#138,#139),
  .UNSPECIFIED.,.F.,.F.,(4,4),(0.,1.),.PIECEWISE_BEZIER_KNOTS.);
#136 = CARTESIAN_POINT('',(-3.042295490609E-04,0.971935386163));
#137 = CARTESIAN_POINT('',(3.063649316248E-03,0.654018772208));
#138 = CARTESIAN_POINT('',(6.548940512917E-03,0.34254576069));
#139 = CARTESIAN_POINT('',(2.421528990559E-03,2.748846416641E-02));
#140 = ( GEOMETRIC_REPRESENTATION_CONTEXT(2) 
PARAMETRIC_REPRESENTATION_CONTEXT() REPRESENTATION_CONTEXT('2D SPACE',''
  ) );
#141 = PCURVE('',#142,#159);
#142 = B_SPLINE_SURFACE_WITH_KNOTS('',3,3,(
    (#143,#144,#145,#146)
    ,(#147,#148,#149,#150)
    ,(#151,#152,#153,#154)
    ,(#155,#156,#157,#158
    )),.UNSPECIFIED.,.F.,.F.,.F.,(4,4),(4,4),(0.,1.),(0.,1.),
  .PIECEWISE_BEZIER_KNOTS.);
#143 = CARTESIAN_POINT('',(0.936462461948,1.056421041489,
    -1.968712732196E-02));
#144 = CARTESIAN_POINT('',(0.936418213147,0.343311350911,
    -3.277818077481E-02));
#145 = CARTESIAN_POINT('',(0.931387221425,-0.357554681561,
    -2.784408799102E-02));
#146 = CARTESIAN_POINT('',(0.937927305698,-1.063696146011,
    -3.360314294696E-02));
#147 = CARTESIAN_POINT('',(0.953851155368,1.062118191135,1.199936531267)
  );
#148 = CARTESIAN_POINT('',(0.963328745562,0.363771942021,1.19185660081)
  );
#149 = CARTESIAN_POINT('',(0.938558105719,-0.359612863519,1.195153518694
    ));
#150 = CARTESIAN_POINT('',(0.963425073915,-1.042594412145,1.168883683981
    ));
#151 = CARTESIAN_POINT('',(-0.955581788217,1.052359474293,1.192883905885
    ));
#152 = CARTESIAN_POINT('',(-0.959441742484,0.345914352199,1.207879864697
    ));
#153 = CARTESIAN_POINT('',(-0.943254808465,-0.328901987856,
    1.183488689636));
#154 = CARTESIAN_POINT('',(-0.957118993499,-1.067231791561,
    1.205494965855));
#155 = CARTESIAN_POINT('',(-0.921935975552,1.049585103989,
    -1.553673669696E-02));
#156 = CARTESIAN_POINT('',(-0.92264619129,0.353183453506,
    -2.613634595725E-02));
#157 = CARTESIAN_POINT('',(-0.926246630721,-0.370699664755,
    -3.094330033354E-02));
#158 = CARTESIAN_POINT('',(-0.919006288052,-1.055883646011,
    -3.873009607196E-02));
#159 = DEFINITIONAL_REPRESENTATION('',(#160),#165);
#160 = B_SPLINE_CURVE_WITH_KNOTS('',3,(#161,#162,#163,#164),
  .UNSPECIFIED.,.F.,.F.,(4,4),(0.,1.),.PIECEWISE_BEZIER_KNOTS.);
#161 = CARTESIAN_POINT('',(0.989217532135,0.972470724749));
#162 = CARTESIAN_POINT('',(0.991683135015,0.650803337035));
#163 = CARTESIAN_POINT('',(0.994038588623,0.343506239239));
#164 = CARTESIAN_POINT('',(0.996471726308,2.607432445813E-02));
#165 = ( GEOMETRIC_REPRESENTATION_CONTEXT(2) 
PARAMETRIC_REPRESENTATION_CONTEXT() REPRESENTATION_CONTEXT('2D SPACE',''
  ) );
#166 = ORIENTED_EDGE('',*,*,#167,.T.);
#167 = EDGE_CURVE('',#126,#168,#170,.T.);
#168 = VERTEX_POINT('',#169);
#169 = CARTESIAN_POINT('',(0.865003789465,1.000196297963,
    -9.055199722449E-03));
#170 = SURFACE_CURVE('',#171,(#177,#187),.PCURVE_S1.);
#171 = B_SPLINE_CURVE_WITH_KNOTS('',4,(#172,#173,#174,#175,#176),
  .UNSPECIFIED.,.F.,.F.,(5,5),(0.,1.),.PIECEWISE_BEZIER_KNOTS.);
#172 = CARTESIAN_POINT('',(-0.864024902383,0.99499130249,
    -2.609916341801E-03));
#173 = CARTESIAN_POINT('',(-0.881689733651,1.007237759381,
    -0.653481864898));
#174 = CARTESIAN_POINT('',(-1.164984230373E-02,0.996356440927,
    -1.454427551356));
#175 = CARTESIAN_POINT('',(0.89567095602,1.002304305609,-0.661646290488)
  );
#176 = CARTESIAN_POINT('',(0.865003789465,1.000196297963,
    -9.055199722449E-03));
#177 = PCURVE('',#33,#178);
#178 = DEFINITIONAL_REPRESENTATION('',(#179),#186);
#179 = B_SPLINE_CURVE_WITH_KNOTS('',5,(#180,#181,#182,#183,#184,#185),
  .UNSPECIFIED.,.F.,.F.,(6,6),(0.,1.),.PIECEWISE_BEZIER_KNOTS.);
#180 = CARTESIAN_POINT('',(2.421528990559E-03,2.748846416641E-02));
#181 = CARTESIAN_POINT('',(0.147174258714,2.506822009278E-02));
#182 = CARTESIAN_POINT('',(0.499509657092,2.888013167385E-02));
#183 = CARTESIAN_POINT('',(0.50333769294,2.968914221866E-02));
#184 = CARTESIAN_POINT('',(0.843212439621,2.664824651517E-02));
#185 = CARTESIAN_POINT('',(0.991924648143,2.536888163497E-02));
#186 = ( GEOMETRIC_REPRESENTATION_CONTEXT(2) 
PARAMETRIC_REPRESENTATION_CONTEXT() REPRESENTATION_CONTEXT('2D SPACE',''
  ) );
#187 = PCURVE('',#188,#205);
#188 = B_SPLINE_SURFACE_WITH_KNOTS('',3,3,(
    (#189,#190,#191,#192)
    ,(#193,#194,#195,#196)
    ,(#197,#198,#199,#200)
    ,(#201,#202,#203,#204
    )),.UNSPECIFIED.,.F.,.F.,.F.,(4,4),(4,4),(0.,1.),(0.,1.),
  .PIECEWISE_BEZIER_KNOTS.);
#189 = CARTESIAN_POINT('',(0.868785500526,1.002600908279,-0.857079148293
    ));
#190 = CARTESIAN_POINT('',(0.870937968913,1.000523430837,-0.280279301251
    ));
#191 = CARTESIAN_POINT('',(0.872401496132,1.006147405157,0.298235478104)
  );
#192 = CARTESIAN_POINT('',(0.873668313026,1.000207185745,0.872901320457)
  );
#193 = CARTESIAN_POINT('',(0.291704008095,0.995004048203,-0.847581884119
    ));
#194 = CARTESIAN_POINT('',(0.286765371493,1.009257037308,-0.268698425695
    ));
#195 = CARTESIAN_POINT('',(0.296345469731,0.984003607113,0.298303062266)
  );
#196 = CARTESIAN_POINT('',(0.292900493881,1.003571532866,0.874946091218)
  );
#197 = CARTESIAN_POINT('',(-0.298892958521,1.001435355396,
    -0.848453487956));
#198 = CARTESIAN_POINT('',(-0.280844591752,0.982226458858,
    -0.279987543681));
#199 = CARTESIAN_POINT('',(-0.290344719093,1.015043361224,0.301349127873
    ));
#200 = CARTESIAN_POINT('',(-0.291569867722,0.996035005773,0.879409660481
    ));
#201 = CARTESIAN_POINT('',(-0.868519186974,0.998255968094,
    -0.855614304543));
#202 = CARTESIAN_POINT('',(-0.8748334124,1.004697060964,-0.273806946546)
  );
#203 = CARTESIAN_POINT('',(-0.868358611003,0.994723205364,0.300472058296
    ));
#204 = CARTESIAN_POINT('',(-0.867542624474,0.99930024147,0.874854445457)
  );
#205 = DEFINITIONAL_REPRESENTATION('',(#206),#217);
#206 = B_SPLINE_CURVE_WITH_KNOTS('',5,(#207,#208,#209,#210,#211,#212,
    #213,#214,#215,#216),.UNSPECIFIED.,.F.,.F.,(6,4,6),(0.,0.5,1.),
  .UNSPECIFIED.);
#207 = CARTESIAN_POINT('',(0.996147173282,0.491327632239));
#208 = CARTESIAN_POINT('',(0.999677351129,0.34070125011));
#209 = CARTESIAN_POINT('',(0.92677754927,0.188463122547));
#210 = CARTESIAN_POINT('',(0.806293743264,3.250391702944E-02));
#211 = CARTESIAN_POINT('',(0.647369309102,-6.100435178109E-03));
#212 = CARTESIAN_POINT('',(0.350352509422,-5.378558240262E-03));
#213 = CARTESIAN_POINT('',(0.192802373342,2.676406635087E-02));
#214 = CARTESIAN_POINT('',(7.102549942912E-02,0.1867798856));
#215 = CARTESIAN_POINT('',(-3.710349782128E-03,0.338996509863));
#216 = CARTESIAN_POINT('',(3.753746407082E-03,0.489698126095));
#217 = ( GEOMETRIC_REPRESENTATION_CONTEXT(2) 
PARAMETRIC_REPRESENTATION_CONTEXT() REPRESENTATION_CONTEXT('2D SPACE',''
  ) );
#218 = ORIENTED_EDGE('',*,*,#219,.T.);
#219 = EDGE_CURVE('',#168,#22,#220,.T.);
#220 = SURFACE_CURVE('',#221,(#225,#233),.PCURVE_S1.);
#221 = B_SPLINE_CURVE_WITH_KNOTS('',2,(#222,#223,#224),.UNSPECIFIED.,.F.
  ,.F.,(3,3),(0.,1.),.PIECEWISE_BEZIER_KNOTS.);
#222 = CARTESIAN_POINT('',(0.865003789465,1.000196297963,
    -9.055199722449E-03));
#223 = CARTESIAN_POINT('',(0.860682413954,-7.017129886853E-04,
    -2.151972636947E-03));
#224 = CARTESIAN_POINT('',(0.865400061011,-1.001458307107,
    -1.714346309503E-03));
#225 = PCURVE('',#33,#226);
#226 = DEFINITIONAL_REPRESENTATION('',(#227),#232);
#227 = B_SPLINE_CURVE_WITH_KNOTS('',3,(#228,#229,#230,#231),
  .UNSPECIFIED.,.F.,.F.,(4,4),(0.,1.),.PIECEWISE_BEZIER_KNOTS.);
#228 = CARTESIAN_POINT('',(0.991924648143,2.536888163497E-02));
#229 = CARTESIAN_POINT('',(0.993124794824,0.338884107771));
#230 = CARTESIAN_POINT('',(0.994339799466,0.656280690025));
#231 = CARTESIAN_POINT('',(0.995542150264,0.970371699136));
#232 = ( GEOMETRIC_REPRESENTATION_CONTEXT(2) 
PARAMETRIC_REPRESENTATION_CONTEXT() REPRESENTATION_CONTEXT('2D SPACE',''
  ) );
#233 = PCURVE('',#142,#234);
#234 = DEFINITIONAL_REPRESENTATION('',(#235),#240);
#235 = B_SPLINE_CURVE_WITH_KNOTS('',3,(#236,#237,#238,#239),
  .UNSPECIFIED.,.F.,.F.,(4,4),(0.,1.),.PIECEWISE_BEZIER_KNOTS.);
#236 = CARTESIAN_POINT('',(3.086722168963E-03,2.632987748459E-02));
#237 = CARTESIAN_POINT('',(5.023979446555E-03,0.338584786493));
#238 = CARTESIAN_POINT('',(6.988298601236E-03,0.655201637546));
#239 = CARTESIAN_POINT('',(8.944755807642E-03,0.970551268197));
#240 = ( GEOMETRIC_REPRESENTATION_CONTEXT(2) 
PARAMETRIC_REPRESENTATION_CONTEXT() REPRESENTATION_CONTEXT('2D SPACE',''
  ) );
#241 = ADVANCED_FACE('',(#242),#142,.T.);
#242 = FACE_BOUND('',#243,.T.);
#243 = EDGE_LOOP('',(#244,#272,#273,#301));
#244 = ORIENTED_EDGE('',*,*,#245,.T.);
#245 = EDGE_CURVE('',#24,#22,#246,.T.);
#246 = SURFACE_CURVE('',#247,(#253,#263),.PCURVE_S1.);
#247 = B_SPLINE_CURVE_WITH_KNOTS('',4,(#248,#249,#250,#251,#252),
  .UNSPECIFIED.,.F.,.F.,(5,5),(0.,1.),.PIECEWISE_BEZIER_KNOTS.);
#248 = CARTESIAN_POINT('',(-0.857453271747,-0.998878459136,
    1.367009865741E-03));
#249 = CARTESIAN_POINT('',(-0.887174870645,-0.99493104951,0.667747648596
    ));
#250 = CARTESIAN_POINT('',(-1.605743788916E-03,-1.004938586875,
    1.384700719722));
#251 = CARTESIAN_POINT('',(0.911747559791,-0.993492319678,0.662256149704
    ));
#252 = CARTESIAN_POINT('',(0.865400061011,-1.001458307107,
    -1.714346309503E-03));
#253 = PCURVE('',#142,#254);
#254 = DEFINITIONAL_REPRESENTATION('',(#255),#262);
#255 = B_SPLINE_CURVE_WITH_KNOTS('',5,(#256,#257,#258,#259,#260,#261),
  .UNSPECIFIED.,.F.,.F.,(6,6),(0.,1.),.PIECEWISE_BEZIER_KNOTS.);
#256 = CARTESIAN_POINT('',(0.989217532135,0.972470724749));
#257 = CARTESIAN_POINT('',(0.8427629598,0.969314514519));
#258 = CARTESIAN_POINT('',(0.528903879221,0.971240048211));
#259 = CARTESIAN_POINT('',(0.469417005984,0.978101775696));
#260 = CARTESIAN_POINT('',(0.158943136963,0.971626634885));
#261 = CARTESIAN_POINT('',(8.944755807642E-03,0.970551268197));
#262 = ( GEOMETRIC_REPRESENTATION_CONTEXT(2) 
PARAMETRIC_REPRESENTATION_CONTEXT() REPRESENTATION_CONTEXT('2D SPACE',''
  ) );
#263 = PCURVE('',#79,#264);
#264 = DEFINITIONAL_REPRESENTATION('',(#265),#271);
#265 = B_SPLINE_CURVE_WITH_KNOTS('',4,(#266,#267,#268,#269,#270),
  .UNSPECIFIED.,.F.,.F.,(5,5),(0.,1.),.PIECEWISE_BEZIER_KNOTS.);
#266 = CARTESIAN_POINT('',(1.813179486678E-03,0.501922755019));
#267 = CARTESIAN_POINT('',(-1.748067179859E-02,0.886329415762));
#268 = CARTESIAN_POINT('',(0.493233464014,1.306253660581));
#269 = CARTESIAN_POINT('',(1.021144552418,0.883462685654));
#270 = CARTESIAN_POINT('',(0.996816075815,0.499216663256));
#271 = ( GEOMETRIC_REPRESENTATION_CONTEXT(2) 
PARAMETRIC_REPRESENTATION_CONTEXT() REPRESENTATION_CONTEXT('2D SPACE',''
  ) );
#272 = ORIENTED_EDGE('',*,*,#219,.F.);
#273 = ORIENTED_EDGE('',*,*,#274,.T.);
#274 = EDGE_CURVE('',#168,#126,#275,.T.);
#275 = SURFACE_CURVE('',#276,(#282,#292),.PCURVE_S1.);
#276 = B_SPLINE_CURVE_WITH_KNOTS('',4,(#277,#278,#279,#280,#281),
  .UNSPECIFIED.,.F.,.F.,(5,5),(0.,1.),.PIECEWISE_BEZIER_KNOTS.);
#277 = CARTESIAN_POINT('',(0.865003789465,1.000196297963,
    -9.055199722449E-03));
#278 = CARTESIAN_POINT('',(0.905933515917,1.009752396986,0.646525076474)
  );
#279 = CARTESIAN_POINT('',(-6.238700886724E-03,0.989661222772,
    1.423654333889));
#280 = CARTESIAN_POINT('',(-0.880236635785,1.004166704802,0.655522793046
    ));
#281 = CARTESIAN_POINT('',(-0.864024902383,0.99499130249,
    -2.609916341801E-03));
#282 = PCURVE('',#142,#283);
#283 = DEFINITIONAL_REPRESENTATION('',(#284),#291);
#284 = B_SPLINE_CURVE_WITH_KNOTS('',5,(#285,#286,#287,#288,#289,#290),
  .UNSPECIFIED.,.F.,.F.,(6,6),(0.,1.),.PIECEWISE_BEZIER_KNOTS.);
#285 = CARTESIAN_POINT('',(3.086722168963E-03,2.632987748459E-02));
#286 = CARTESIAN_POINT('',(0.147538371605,2.440480562364E-02));
#287 = CARTESIAN_POINT('',(0.479926215362,2.975540775489E-02));
#288 = CARTESIAN_POINT('',(0.517030593362,2.760708442962E-02));
#289 = CARTESIAN_POINT('',(0.850439143337,2.334707224612E-02));
#290 = CARTESIAN_POINT('',(0.996471726308,2.607432445813E-02));
#291 = ( GEOMETRIC_REPRESENTATION_CONTEXT(2) 
PARAMETRIC_REPRESENTATION_CONTEXT() REPRESENTATION_CONTEXT('2D SPACE',''
  ) );
#292 = PCURVE('',#188,#293);
#293 = DEFINITIONAL_REPRESENTATION('',(#294),#300);
#294 = B_SPLINE_CURVE_WITH_KNOTS('',4,(#295,#296,#297,#298,#299),
  .UNSPECIFIED.,.F.,.F.,(5,5),(0.,1.),.PIECEWISE_BEZIER_KNOTS.);
#295 = CARTESIAN_POINT('',(3.753746407082E-03,0.489698126095));
#296 = CARTESIAN_POINT('',(-1.874913065423E-02,0.868634528723));
#297 = CARTESIAN_POINT('',(0.50455018877,1.315775674866));
#298 = CARTESIAN_POINT('',(1.006638729123,0.872041256772));
#299 = CARTESIAN_POINT('',(0.996147173282,0.491327632239));
#300 = ( GEOMETRIC_REPRESENTATION_CONTEXT(2) 
PARAMETRIC_REPRESENTATION_CONTEXT() REPRESENTATION_CONTEXT('2D SPACE',''
  ) );
#301 = ORIENTED_EDGE('',*,*,#125,.F.);
#302 = ADVANCED_FACE('',(#303),#79,.T.);
#303 = FACE_BOUND('',#304,.F.);
#304 = EDGE_LOOP('',(#305,#306));
#305 = ORIENTED_EDGE('',*,*,#21,.T.);
#306 = ORIENTED_EDGE('',*,*,#245,.T.);
#307 = ADVANCED_FACE('',(#308),#188,.T.);
#308 = FACE_BOUND('',#309,.F.);
#309 = EDGE_LOOP('',(#310,#311));
#310 = ORIENTED_EDGE('',*,*,#274,.T.);
#311 = ORIENTED_EDGE('',*,*,#167,.T.);
#312 = ( GEOMETRIC_REPRESENTATION_CONTEXT(3) 
GLOBAL_UNCERTAINTY_ASSIGNED_CONTEXT((#316)) GLOBAL_UNIT_ASSIGNED_CONTEXT
((#313,#314,#315)) REPRESENTATION_CONTEXT('Context #1',
  '3D Context with UNIT and UNCERTAINTY') );
#313 = ( LENGTH_UNIT() NAMED_UNIT(*) SI_UNIT(.MILLI.,.METRE.) );
#314 = ( NAMED_UNIT(*) PLANE_ANGLE_UNIT() SI_UNIT($,.RADIAN.) );
#315 = ( NAMED_UNIT(*) SI_UNIT($,.STERADIAN.) SOLID_ANGLE_UNIT() );
#316 = UNCERTAINTY_MEASURE_WITH_UNIT(LENGTH_MEASURE(0.1),#313,
  'distance_accuracy_value','confusion accuracy');
#317 = PRODUCT_RELATED_PRODUCT_CATEGORY('detail',$,(#7));
#318 = PRODUCT_CATEGORY_RELATIONSHIP('','',#319,#317);
#319 = PRODUCT_CATEGORY('part',$);
#320 = CC_DESIGN_PERSON_AND_ORGANIZATION_ASSIGNMENT(#321,#324,(#6,#5));
#321 = PERSON_AND_ORGANIZATION(#322,#323);
#322 = PERSON('IP127.0.1,workstation-5','','workstation-5,,,',$,$,$);
#323 = ORGANIZATION('IP127.0.1','Unspecified','');
#324 = PERSON_AND_ORGANIZATION_ROLE('creator');
#325 = CC_DESIGN_PERSON_AND_ORGANIZATION_ASSIGNMENT(#321,#326,(#7));
#326 = PERSON_AND_ORGANIZATION_ROLE('design_owner');
#327 = CC_DESIGN_PERSON_AND_ORGANIZATION_ASSIGNMENT(#321,#328,(#6));
#328 = PERSON_AND_ORGANIZATION_ROLE('design_supplier');
#329 = CC_DESIGN_PERSON_AND_ORGANIZATION_ASSIGNMENT(#321,#330,(#331));
#330 = PERSON_AND_ORGANIZATION_ROLE('classification_officer');
#331 = SECURITY_CLASSIFICATION('','',#332);
#332 = SECURITY_CLASSIFICATION_LEVEL('unclassified');
#333 = CC_DESIGN_SECURITY_CLASSIFICATION(#331,(#6));
#334 = CC_DESIGN_DATE_AND_TIME_ASSIGNMENT(#335,#339,(#5));
#335 = DATE_AND_TIME(#336,#337);
#336 = CALENDAR_DATE(2024,1,12);
#337 = LOCAL_TIME(18,26,$,#338);
#338 = COORDINATED_UNIVERSAL_TIME_OFFSET(5,$,.BEHIND.);
#339 = DATE_TIME_ROLE('creation_date');
#340 = CC_DESIGN_DATE_AND_TIME_ASSIGNMENT(#335,#341,(#331));
#341 = DATE_TIME_ROLE('classification_date');
#342 = CC_DESIGN_APPROVAL(#343,(#6,#5,#331));
#343 = APPROVAL(#344,'');
#344 = APPROVAL_STATUS('not_yet_approved');
#345 = APPROVAL_PERSON_ORGANIZATION(#321,#343,#346);
#346 = APPROVAL_ROLE('approver');
#347 = APPROVAL_DATE_TIME(#335,#343);
ENDSEC;
END-ISO-10303-21;
