ISO-10303-21;
HEADER;
FILE_DESCRIPTION(('Open CASCADE Model'),'2;1');
FILE_NAME('Open CASCADE Shape Model','2024-12-04T23:24:53',('Author'),(
    'Open CASCADE'),'Open CASCADE STEP processor 7.5','Open CASCADE 7.5'
  ,'Unknown');
FILE_SCHEMA(('CONFIG_CONTROL_DESIGN'));
ENDSEC;
DATA;
#1 = APPLICATION_PROTOCOL_DEFINITION('international standard',
  'config_control_design',1994,#2);
#2 = APPLICATION_CONTEXT(
'configuration controlled 3D designs of mechanical parts and assemblies'
  );
#3 = SHAPE_DEFINITION_REPRESENTATION(#4,#10);
#4 = PRODUCT_DEFINITION_SHAPE('','',#5);
#5 = PRODUCT_DEFINITION('design','',#6,#9);
#6 = PRODUCT_DEFINITION_FORMATION_WITH_SPECIFIED_SOURCE('','',#7,
  .NOT_KNOWN.);
#7 = PRODUCT('Open CASCADE STEP translator 7.5 5169',
  'Open CASCADE STEP translator 7.5 5169','',(#8));
#8 = MECHANICAL_CONTEXT('',#2,'mechanical');
#9 = DESIGN_CONTEXT('',#2,'design');
#10 = ADVANCED_BREP_SHAPE_REPRESENTATION('',(#11,#15),#318);
#11 = AXIS2_PLACEMENT_3D('',#12,#13,#14);
#12 = CARTESIAN_POINT('',(0.,0.,0.));
#13 = DIRECTION('',(0.,0.,1.));
#14 = DIRECTION('',(1.,0.,-0.));
#15 = MANIFOLD_SOLID_BREP('',#16);
#16 = CLOSED_SHELL('',(#17,#242,#308,#313));
#17 = ADVANCED_FACE('',(#18),#35,.T.);
#18 = FACE_BOUND('',#19,.T.);
#19 = EDGE_LOOP('',(#20,#126,#168,#215));
#20 = ORIENTED_EDGE('',*,*,#21,.T.);
#21 = EDGE_CURVE('',#22,#24,#26,.T.);
#22 = VERTEX_POINT('',#23);
#23 = CARTESIAN_POINT('',(-2.081772778183E-03,0.243951233725,
    0.999974345167));
#24 = VERTEX_POINT('',#25);
#25 = CARTESIAN_POINT('',(-3.247485961765E-03,0.246706837167,
    -0.995614831646));
#26 = SURFACE_CURVE('',#27,(#34,#80),.PCURVE_S1.);
#27 = B_SPLINE_CURVE_WITH_KNOTS('',5,(#28,#29,#30,#31,#32,#33),
  .UNSPECIFIED.,.F.,.F.,(6,6),(0.,1.),.PIECEWISE_BEZIER_KNOTS.);
#28 = CARTESIAN_POINT('',(-2.081772778183E-03,0.243951233725,
    0.999974345167));
#29 = CARTESIAN_POINT('',(-0.612158561808,0.260703195198,0.980372519598)
  );
#30 = CARTESIAN_POINT('',(-1.284905607435,0.244870882183,0.511428212265)
  );
#31 = CARTESIAN_POINT('',(-1.319360473762,0.252129565752,-0.517620514722
    ));
#32 = CARTESIAN_POINT('',(-0.612265798461,0.246470034604,-0.99483548213)
  );
#33 = CARTESIAN_POINT('',(-3.247485961765E-03,0.246706837167,
    -0.995614831646));
#34 = PCURVE('',#35,#52);
#35 = B_SPLINE_SURFACE_WITH_KNOTS('',3,3,(
    (#36,#37,#38,#39)
    ,(#40,#41,#42,#43)
    ,(#44,#45,#46,#47)
    ,(#48,#49,#50,#51
    )),.UNSPECIFIED.,.F.,.F.,.F.,(4,4),(4,4),(0.,1.),(0.,1.),
  .PIECEWISE_BEZIER_KNOTS.);
#36 = CARTESIAN_POINT('',(1.588421314955E-02,0.246009007096,
    1.045225977898));
#37 = CARTESIAN_POINT('',(2.448698543265E-02,7.303211959937E-02,
    1.036454524652));
#38 = CARTESIAN_POINT('',(1.500536442077E-02,-9.037835313645E-02,
    1.037794372749));
#39 = CARTESIAN_POINT('',(1.783733814955E-02,-0.25814139843,
    1.036436915398));
#40 = CARTESIAN_POINT('',(-1.372607666488,0.248824398641,1.097120103873)
  );
#41 = CARTESIAN_POINT('',(-1.371705036804,8.577422183981E-02,
    1.107946473696));
#42 = CARTESIAN_POINT('',(-1.374497732488,-9.118993430556E-02,
    1.095585656098));
#43 = CARTESIAN_POINT('',(-1.370346539379,-0.249856773012,1.081988371793
    ));
#44 = CARTESIAN_POINT('',(-1.356336587496,0.247750692192,-1.080490288433
    ));
#45 = CARTESIAN_POINT('',(-1.379445489342,8.478477924684E-02,
    -1.100536220585));
#46 = CARTESIAN_POINT('',(-1.354887594443,-7.695549137824E-02,
    -1.084011188277));
#47 = CARTESIAN_POINT('',(-1.366627557091,-0.245146941925,
    -1.087252267745));
#48 = CARTESIAN_POINT('',(1.686077564955E-02,0.25601875782,
    -1.039734959602));
#49 = CARTESIAN_POINT('',(2.640669944166E-02,8.850937749169E-02,
    -1.034825047055));
#50 = CARTESIAN_POINT('',(1.353346445025E-02,-7.319352788163E-02,
    -1.045465462557));
#51 = CARTESIAN_POINT('',(1.979046314955E-02,-0.242394313216,
    -1.050477147102));
#52 = DEFINITIONAL_REPRESENTATION('',(#53),#79);
#53 = B_SPLINE_CURVE_WITH_KNOTS('',3,(#54,#55,#56,#57,#58,#59,#60,#61,
    #62,#63,#64,#65,#66,#67,#68,#69,#70,#71,#72,#73,#74,#75,#76,#77,#78)
  ,.UNSPECIFIED.,.F.,.F.,(4,1,1,1,1,1,1,1,1,1,1,1,1,1,1,1,1,1,1,1,1,1,4)
  ,(0.,4.545454545455E-02,9.090909090909E-02,0.136363636364,
    0.181818181818,0.227272727273,0.272727272727,0.318181818182,
    0.363636363636,0.409090909091,0.454545454545,0.5,0.545454545455,
    0.590909090909,0.636363636364,0.681818181818,0.727272727273,
    0.772727272727,0.818181818182,0.863636363636,0.909090909091,
    0.954545454545,1.),.QUASI_UNIFORM_KNOTS.);
#54 = CARTESIAN_POINT('',(4.109677532842E-03,8.196349581361E-03));
#55 = CARTESIAN_POINT('',(1.564144309228E-02,6.064862106758E-03));
#56 = CARTESIAN_POINT('',(4.005547385325E-02,2.64129652184E-03));
#57 = CARTESIAN_POINT('',(8.056178449949E-02,-6.646304554783E-04));
#58 = CARTESIAN_POINT('',(0.125027444137,-2.903212033076E-03));
#59 = CARTESIAN_POINT('',(0.172685421074,-4.580081634945E-03));
#60 = CARTESIAN_POINT('',(0.222014630265,-5.911656842032E-03));
#61 = CARTESIAN_POINT('',(0.271387449716,-6.8070057376E-03));
#62 = CARTESIAN_POINT('',(0.319830073045,-7.080426278095E-03));
#63 = CARTESIAN_POINT('',(0.367072412449,-6.66036189961E-03));
#64 = CARTESIAN_POINT('',(0.413242996836,-5.650856675425E-03));
#65 = CARTESIAN_POINT('',(0.458622845566,-4.285505869445E-03));
#66 = CARTESIAN_POINT('',(0.503528695257,-2.845616561074E-03));
#67 = CARTESIAN_POINT('',(0.548275577975,-1.578143524195E-03));
#68 = CARTESIAN_POINT('',(0.59317238098,-6.233947037183E-04));
#69 = CARTESIAN_POINT('',(0.638520585416,4.741098929614E-05));
#70 = CARTESIAN_POINT('',(0.684590633942,6.777850126666E-04));
#71 = CARTESIAN_POINT('',(0.731542876275,1.718745429684E-03));
#72 = CARTESIAN_POINT('',(0.779256186471,3.686476998113E-03));
#73 = CARTESIAN_POINT('',(0.827090321889,6.822170904071E-03));
#74 = CARTESIAN_POINT('',(0.873812554212,1.075483052574E-02));
#75 = CARTESIAN_POINT('',(0.918033073832,1.468665518853E-02));
#76 = CARTESIAN_POINT('',(0.958776319953,1.795596424208E-02));
#77 = CARTESIAN_POINT('',(0.983473036088,1.964790189695E-02));
#78 = CARTESIAN_POINT('',(0.995132279462,2.033226086463E-02));
#79 = ( GEOMETRIC_REPRESENTATION_CONTEXT(2) 
PARAMETRIC_REPRESENTATION_CONTEXT() REPRESENTATION_CONTEXT('2D SPACE',''
  ) );
#80 = PCURVE('',#81,#98);
#81 = B_SPLINE_SURFACE_WITH_KNOTS('',3,3,(
    (#82,#83,#84,#85)
    ,(#86,#87,#88,#89)
    ,(#90,#91,#92,#93)
    ,(#94,#95,#96,#97
    )),.UNSPECIFIED.,.F.,.F.,.F.,(4,4),(4,4),(0.,1.),(0.,1.),
  .PIECEWISE_BEZIER_KNOTS.);
#82 = CARTESIAN_POINT('',(1.050109863281,0.251102775335,-1.040594935417)
  );
#83 = CARTESIAN_POINT('',(1.048688704282,0.248200088267,-0.343190833015)
  );
#84 = CARTESIAN_POINT('',(1.047683195137,0.255887513462,0.35325108599));
#85 = CARTESIAN_POINT('',(1.046203613281,0.248707145452,1.050225377083)
  );
#86 = CARTESIAN_POINT('',(0.352897414791,0.246297660625,-1.033344675508)
  );
#87 = CARTESIAN_POINT('',(0.343895040957,0.265461825685,-0.336174517112)
  );
#88 = CARTESIAN_POINT('',(0.352432996058,0.234397417725,0.351419379517)
  );
#89 = CARTESIAN_POINT('',(0.342702473616,0.258100068876,1.043359641126)
  );
#90 = CARTESIAN_POINT('',(-0.359525688552,0.255591974065,-1.037807528097
    ));
#91 = CARTESIAN_POINT('',(-0.339114131656,0.230504629418,-0.351595739382
    ));
#92 = CARTESIAN_POINT('',(-0.359629848055,0.269482621427,0.346642277333)
  );
#93 = CARTESIAN_POINT('',(-0.362441820886,0.247065551039,1.045011223863)
  );
#94 = CARTESIAN_POINT('',(-1.047546386719,0.244425147772,-1.046454310417
    ));
#95 = CARTESIAN_POINT('',(-1.061681637651,0.251793958321,-0.346428468619
    ));
#96 = CARTESIAN_POINT('',(-1.052971111,0.240339596442,0.34601141246));
#97 = CARTESIAN_POINT('',(-1.058288574219,0.24371561408,1.037530064583)
  );
#98 = DEFINITIONAL_REPRESENTATION('',(#99),#125);
#99 = B_SPLINE_CURVE_WITH_KNOTS('',3,(#100,#101,#102,#103,#104,#105,#106
    ,#107,#108,#109,#110,#111,#112,#113,#114,#115,#116,#117,#118,#119,
    #120,#121,#122,#123,#124),.UNSPECIFIED.,.F.,.F.,(4,1,1,1,1,1,1,1,1,1
    ,1,1,1,1,1,1,1,1,1,1,1,1,4),(0.,4.545454545455E-02,
    9.090909090909E-02,0.136363636364,0.181818181818,0.227272727273,
    0.272727272727,0.318181818182,0.363636363636,0.409090909091,
    0.454545454545,0.5,0.545454545455,0.590909090909,0.636363636364,
    0.681818181818,0.727272727273,0.772727272727,0.818181818182,
    0.863636363636,0.909090909091,0.954545454545,1.),
  .QUASI_UNIFORM_KNOTS.);
#100 = CARTESIAN_POINT('',(0.49694102443,0.978816040358));
#101 = CARTESIAN_POINT('',(0.518886216571,0.978215693506));
#102 = CARTESIAN_POINT('',(0.563179174632,0.973962320208));
#103 = CARTESIAN_POINT('',(0.629184739748,0.95856697583));
#104 = CARTESIAN_POINT('',(0.6930600565,0.934205551118));
#105 = CARTESIAN_POINT('',(0.75330048926,0.901254676082));
#106 = CARTESIAN_POINT('',(0.808526566491,0.860269503444));
#107 = CARTESIAN_POINT('',(0.85750223005,0.811998621332));
#108 = CARTESIAN_POINT('',(0.899142851647,0.757361924469));
#109 = CARTESIAN_POINT('',(0.93254380925,0.69743913573));
#110 = CARTESIAN_POINT('',(0.957011090191,0.633448977879));
#111 = CARTESIAN_POINT('',(0.972078284809,0.5667169251));
#112 = CARTESIAN_POINT('',(0.97749834288,0.498630510231));
#113 = CARTESIAN_POINT('',(0.97321263586,0.4305909866));
#114 = CARTESIAN_POINT('',(0.959312195163,0.363971977734));
#115 = CARTESIAN_POINT('',(0.936013175022,0.300090966731));
#116 = CARTESIAN_POINT('',(0.903665157224,0.240194496815));
#117 = CARTESIAN_POINT('',(0.862794559576,0.185454417128));
#118 = CARTESIAN_POINT('',(0.814163696191,0.136967441147));
#119 = CARTESIAN_POINT('',(0.758815205779,9.574364304733E-02));
#120 = CARTESIAN_POINT('',(0.69807600127,6.267829313329E-02));
#121 = CARTESIAN_POINT('',(0.633527626105,3.849387602154E-02));
#122 = CARTESIAN_POINT('',(0.566932453549,2.372393403051E-02));
#123 = CARTESIAN_POINT('',(0.522490117831,2.026099775652E-02));
#124 = CARTESIAN_POINT('',(0.500577015716,2.01700334289E-02));
#125 = ( GEOMETRIC_REPRESENTATION_CONTEXT(2) 
PARAMETRIC_REPRESENTATION_CONTEXT() REPRESENTATION_CONTEXT('2D SPACE',''
  ) );
#126 = ORIENTED_EDGE('',*,*,#127,.F.);
#127 = EDGE_CURVE('',#128,#24,#130,.T.);
#128 = VERTEX_POINT('',#129);
#129 = CARTESIAN_POINT('',(-1.831068657339E-04,-0.253476116806,
    -0.994519844651));
#130 = SURFACE_CURVE('',#131,(#135,#143),.PCURVE_S1.);
#131 = B_SPLINE_CURVE_WITH_KNOTS('',2,(#132,#133,#134),.UNSPECIFIED.,.F.
  ,.F.,(3,3),(0.,1.),.PIECEWISE_BEZIER_KNOTS.);
#132 = CARTESIAN_POINT('',(-1.831068657339E-04,-0.253476116806,
    -0.994519844651));
#133 = CARTESIAN_POINT('',(-4.583786971745E-04,-3.339587872492E-03,
    -0.99708371384));
#134 = CARTESIAN_POINT('',(-3.247485961765E-03,0.246706837167,
    -0.995614831646));
#135 = PCURVE('',#35,#136);
#136 = DEFINITIONAL_REPRESENTATION('',(#137),#142);
#137 = B_SPLINE_CURVE_WITH_KNOTS('',3,(#138,#139,#140,#141),
  .UNSPECIFIED.,.F.,.F.,(4,4),(0.,1.),.PIECEWISE_BEZIER_KNOTS.);
#138 = CARTESIAN_POINT('',(0.995248622016,1.018085912739));
#139 = CARTESIAN_POINT('',(0.995210418078,0.690448972911));
#140 = CARTESIAN_POINT('',(0.995170971189,0.352152479726));
#141 = CARTESIAN_POINT('',(0.995132279462,2.033226086463E-02));
#142 = ( GEOMETRIC_REPRESENTATION_CONTEXT(2) 
PARAMETRIC_REPRESENTATION_CONTEXT() REPRESENTATION_CONTEXT('2D SPACE',''
  ) );
#143 = PCURVE('',#144,#161);
#144 = B_SPLINE_SURFACE_WITH_KNOTS('',3,3,(
    (#145,#146,#147,#148)
    ,(#149,#150,#151,#152)
    ,(#153,#154,#155,#156)
    ,(#157,#158,#159,#160
    )),.UNSPECIFIED.,.F.,.F.,.F.,(4,4),(4,4),(0.,1.),(0.,1.),
  .PIECEWISE_BEZIER_KNOTS.);
#145 = CARTESIAN_POINT('',(-5.748394876719E-03,0.266099661589,
    -0.990874230862));
#146 = CARTESIAN_POINT('',(-8.753406245378E-03,8.70488457528E-02,
    -0.99399320603));
#147 = CARTESIAN_POINT('',(2.425872605179E-03,-7.374084744844E-02,
    -0.989864845109));
#148 = CARTESIAN_POINT('',(-1.353863626719E-03,-0.259046822786,
    -0.999663293362));
#149 = CARTESIAN_POINT('',(1.291222690101,0.267585201276,-1.019302284368
    ));
#150 = CARTESIAN_POINT('',(1.301087429665,8.460705776325E-02,
    -1.037648282396));
#151 = CARTESIAN_POINT('',(1.286365489187,-8.191282126187E-02,
    -1.019733874105));
#152 = CARTESIAN_POINT('',(1.290686474466,-0.245083499954,
    -1.025874256889));
#153 = CARTESIAN_POINT('',(1.297872128429,0.248657321548,1.027325805827)
  );
#154 = CARTESIAN_POINT('',(1.30817353273,0.100355817357,1.038636343797)
  );
#155 = CARTESIAN_POINT('',(1.301651835091,-9.113587673009E-02,
    1.023144588549));
#156 = CARTESIAN_POINT('',(1.306274461703,-0.261396545538,1.024696237871
    ));
#157 = CARTESIAN_POINT('',(6.214495748281E-03,0.250474661589,
    1.000336766243));
#158 = CARTESIAN_POINT('',(2.71587201975E-03,7.153187580499E-02,
    0.998784185446));
#159 = CARTESIAN_POINT('',(1.81449374886E-03,-9.530737376318E-02,
    0.999231024309));
#160 = CARTESIAN_POINT('',(-3.551129251719E-03,-0.266615182161,
    0.988129675388));
#161 = DEFINITIONAL_REPRESENTATION('',(#162),#167);
#162 = B_SPLINE_CURVE_WITH_KNOTS('',3,(#163,#164,#165,#166),
  .UNSPECIFIED.,.F.,.F.,(4,4),(0.,1.),.PIECEWISE_BEZIER_KNOTS.);
#163 = CARTESIAN_POINT('',(2.47547045259E-04,0.989529577794));
#164 = CARTESIAN_POINT('',(4.014769204054E-04,0.689175553415));
#165 = CARTESIAN_POINT('',(5.758890415102E-04,0.348855765432));
#166 = CARTESIAN_POINT('',(7.360408408105E-04,3.636127801998E-02));
#167 = ( GEOMETRIC_REPRESENTATION_CONTEXT(2) 
PARAMETRIC_REPRESENTATION_CONTEXT() REPRESENTATION_CONTEXT('2D SPACE',''
  ) );
#168 = ORIENTED_EDGE('',*,*,#169,.T.);
#169 = EDGE_CURVE('',#128,#170,#172,.T.);
#170 = VERTEX_POINT('',#171);
#171 = CARTESIAN_POINT('',(-2.08373957624E-04,-0.253973419468,
    0.998922730486));
#172 = SURFACE_CURVE('',#173,(#179,#189),.PCURVE_S1.);
#173 = B_SPLINE_CURVE_WITH_KNOTS('',4,(#174,#175,#176,#177,#178),
  .UNSPECIFIED.,.F.,.F.,(5,5),(0.,1.),.PIECEWISE_BEZIER_KNOTS.);
#174 = CARTESIAN_POINT('',(-1.831068657339E-04,-0.253476116806,
    -0.994519844651));
#175 = CARTESIAN_POINT('',(-0.766116405969,-0.249284483185,
    -1.04585021275));
#176 = CARTESIAN_POINT('',(-1.657120842703,-0.243783767319,
    4.882283369506E-03));
#177 = CARTESIAN_POINT('',(-0.761790373931,-0.255861078959,
    1.032352738113));
#178 = CARTESIAN_POINT('',(-2.08373957624E-04,-0.253973419468,
    0.998922730486));
#179 = PCURVE('',#35,#180);
#180 = DEFINITIONAL_REPRESENTATION('',(#181),#188);
#181 = B_SPLINE_CURVE_WITH_KNOTS('',5,(#182,#183,#184,#185,#186,#187),
  .UNSPECIFIED.,.F.,.F.,(6,6),(0.,1.),.PIECEWISE_BEZIER_KNOTS.);
#182 = CARTESIAN_POINT('',(0.995248622016,1.018085912739));
#183 = CARTESIAN_POINT('',(0.846308041573,1.01678745238));
#184 = CARTESIAN_POINT('',(0.532585857064,0.978234071656));
#185 = CARTESIAN_POINT('',(0.465087285244,1.016452559068));
#186 = CARTESIAN_POINT('',(0.15181360792,1.004835496013));
#187 = CARTESIAN_POINT('',(4.153878081783E-03,0.992555120702));
#188 = ( GEOMETRIC_REPRESENTATION_CONTEXT(2) 
PARAMETRIC_REPRESENTATION_CONTEXT() REPRESENTATION_CONTEXT('2D SPACE',''
  ) );
#189 = PCURVE('',#190,#207);
#190 = B_SPLINE_SURFACE_WITH_KNOTS('',3,3,(
    (#191,#192,#193,#194)
    ,(#195,#196,#197,#198)
    ,(#199,#200,#201,#202)
    ,(#203,#204,#205,#206
    )),.UNSPECIFIED.,.F.,.F.,.F.,(4,4),(4,4),(0.,1.),(0.,1.),
  .PIECEWISE_BEZIER_KNOTS.);
#191 = CARTESIAN_POINT('',(-0.998266160488,-0.251456528902,
    -1.001683115959));
#192 = CARTESIAN_POINT('',(-0.997234110153,-0.253013026459,
    -0.338104999039));
#193 = CARTESIAN_POINT('',(-0.993945319561,-0.248773849261,0.33084253504
    ));
#194 = CARTESIAN_POINT('',(-0.992406785488,-0.250482589006,
    0.995875477791));
#195 = CARTESIAN_POINT('',(-0.338930781139,-0.247325482306,
    -0.99926318208));
#196 = CARTESIAN_POINT('',(-0.333869891816,-0.259935158864,
    -0.323374478476));
#197 = CARTESIAN_POINT('',(-0.324538137406,-0.243949128402,
    0.321176946146));
#198 = CARTESIAN_POINT('',(-0.334055117127,-0.254663160955,0.99528728004
    ));
#199 = CARTESIAN_POINT('',(0.329054877395,-0.257348777463,
    -0.991017425043));
#200 = CARTESIAN_POINT('',(0.334875887206,-0.253839563467,
    -0.343003796449));
#201 = CARTESIAN_POINT('',(0.328867575059,-0.258847185371,0.334080981952
    ));
#202 = CARTESIAN_POINT('',(0.336881224,-0.251314509948,0.987472822964));
#203 = CARTESIAN_POINT('',(0.992944777012,-0.254300385714,
    -1.001683115959));
#204 = CARTESIAN_POINT('',(0.988919994712,-0.249327972284,
    -0.331638949407));
#205 = CARTESIAN_POINT('',(1.00081311264,-0.251360584862,0.332137008709)
  );
#206 = CARTESIAN_POINT('',(0.994409620762,-0.250032693148,0.995875477791
    ));
#207 = DEFINITIONAL_REPRESENTATION('',(#208),#214);
#208 = B_SPLINE_CURVE_WITH_KNOTS('',4,(#209,#210,#211,#212,#213),
  .UNSPECIFIED.,.F.,.F.,(5,5),(0.,1.),.PIECEWISE_BEZIER_KNOTS.);
#209 = CARTESIAN_POINT('',(0.502094685192,1.129778020128E-03));
#210 = CARTESIAN_POINT('',(0.118186239175,-2.342792846252E-02));
#211 = CARTESIAN_POINT('',(-0.334627385512,0.505090567614));
#212 = CARTESIAN_POINT('',(0.117213676026,1.018796245648));
#213 = CARTESIAN_POINT('',(0.499242731645,1.003222027799));
#214 = ( GEOMETRIC_REPRESENTATION_CONTEXT(2) 
PARAMETRIC_REPRESENTATION_CONTEXT() REPRESENTATION_CONTEXT('2D SPACE',''
  ) );
#215 = ORIENTED_EDGE('',*,*,#216,.F.);
#216 = EDGE_CURVE('',#22,#170,#217,.T.);
#217 = SURFACE_CURVE('',#218,(#222,#230),.PCURVE_S1.);
#218 = B_SPLINE_CURVE_WITH_KNOTS('',2,(#219,#220,#221),.UNSPECIFIED.,.F.
  ,.F.,(3,3),(0.,1.),.PIECEWISE_BEZIER_KNOTS.);
#219 = CARTESIAN_POINT('',(-2.081772778183E-03,0.243951233725,
    0.999974345167));
#220 = CARTESIAN_POINT('',(-1.232703185557E-03,-5.03463326385E-03,
    1.00023180758));
#221 = CARTESIAN_POINT('',(-2.08373957624E-04,-0.253973419468,
    0.998922730486));
#222 = PCURVE('',#35,#223);
#223 = DEFINITIONAL_REPRESENTATION('',(#224),#229);
#224 = B_SPLINE_CURVE_WITH_KNOTS('',3,(#225,#226,#227,#228),
  .UNSPECIFIED.,.F.,.F.,(4,4),(0.,1.),.PIECEWISE_BEZIER_KNOTS.);
#225 = CARTESIAN_POINT('',(4.109677532842E-03,8.196349581361E-03));
#226 = CARTESIAN_POINT('',(4.124030627885E-03,0.327843850275));
#227 = CARTESIAN_POINT('',(4.139058165609E-03,0.662511380902));
#228 = CARTESIAN_POINT('',(4.153878081783E-03,0.992555120702));
#229 = ( GEOMETRIC_REPRESENTATION_CONTEXT(2) 
PARAMETRIC_REPRESENTATION_CONTEXT() REPRESENTATION_CONTEXT('2D SPACE',''
  ) );
#230 = PCURVE('',#144,#231);
#231 = DEFINITIONAL_REPRESENTATION('',(#232),#241);
#232 = B_SPLINE_CURVE_WITH_KNOTS('',7,(#233,#234,#235,#236,#237,#238,
    #239,#240),.UNSPECIFIED.,.F.,.F.,(8,8),(0.,1.),
  .PIECEWISE_BEZIER_KNOTS.);
#233 = CARTESIAN_POINT('',(1.001122862522,1.952959426067E-02));
#234 = CARTESIAN_POINT('',(1.00085403325,0.152316015983));
#235 = CARTESIAN_POINT('',(1.000681637032,0.237469975455));
#236 = CARTESIAN_POINT('',(1.000182126411,0.484199907309));
#237 = CARTESIAN_POINT('',(1.000137759152,0.506114817964));
#238 = CARTESIAN_POINT('',(0.999713141027,0.715852102524));
#239 = CARTESIAN_POINT('',(0.999470038647,0.835930897662));
#240 = CARTESIAN_POINT('',(0.999190017767,0.97424533917));
#241 = ( GEOMETRIC_REPRESENTATION_CONTEXT(2) 
PARAMETRIC_REPRESENTATION_CONTEXT() REPRESENTATION_CONTEXT('2D SPACE',''
  ) );
#242 = ADVANCED_FACE('',(#243),#144,.T.);
#243 = FACE_BOUND('',#244,.T.);
#244 = EDGE_LOOP('',(#245,#276,#277,#307));
#245 = ORIENTED_EDGE('',*,*,#246,.T.);
#246 = EDGE_CURVE('',#170,#128,#247,.T.);
#247 = SURFACE_CURVE('',#248,(#254,#266),.PCURVE_S1.);
#248 = B_SPLINE_CURVE_WITH_KNOTS('',4,(#249,#250,#251,#252,#253),
  .UNSPECIFIED.,.F.,.F.,(5,5),(0.,1.),.PIECEWISE_BEZIER_KNOTS.);
#249 = CARTESIAN_POINT('',(-2.08373957624E-04,-0.253973419468,
    0.998922730486));
#250 = CARTESIAN_POINT('',(0.769176713415,-0.242938499864,1.043657652849
    ));
#251 = CARTESIAN_POINT('',(1.635588694333,-0.257441102348,
    1.708028362359E-03));
#252 = CARTESIAN_POINT('',(0.772940904147,-0.254928698116,
    -1.046970244912));
#253 = CARTESIAN_POINT('',(-1.831068657339E-04,-0.253476116806,
    -0.994519844651));
#254 = PCURVE('',#144,#255);
#255 = DEFINITIONAL_REPRESENTATION('',(#256),#265);
#256 = B_SPLINE_CURVE_WITH_KNOTS('',7,(#257,#258,#259,#260,#261,#262,
    #263,#264),.UNSPECIFIED.,.F.,.F.,(8,8),(0.,1.),
  .PIECEWISE_BEZIER_KNOTS.);
#257 = CARTESIAN_POINT('',(0.999190017767,0.97424533917));
#258 = CARTESIAN_POINT('',(0.886948556444,0.963877710737));
#259 = CARTESIAN_POINT('',(0.755838060697,0.989582968688));
#260 = CARTESIAN_POINT('',(0.467346623118,0.967465578647));
#261 = CARTESIAN_POINT('',(0.528067490659,1.029700822091));
#262 = CARTESIAN_POINT('',(0.254681762076,0.996611139914));
#263 = CARTESIAN_POINT('',(0.114569789605,1.001174751448));
#264 = CARTESIAN_POINT('',(2.475470452593E-04,0.989529577794));
#265 = ( GEOMETRIC_REPRESENTATION_CONTEXT(2) 
PARAMETRIC_REPRESENTATION_CONTEXT() REPRESENTATION_CONTEXT('2D SPACE',''
  ) );
#266 = PCURVE('',#190,#267);
#267 = DEFINITIONAL_REPRESENTATION('',(#268),#275);
#268 = B_SPLINE_CURVE_WITH_KNOTS('',5,(#269,#270,#271,#272,#273,#274),
  .UNSPECIFIED.,.F.,.F.,(6,6),(0.,1.),.PIECEWISE_BEZIER_KNOTS.);
#269 = CARTESIAN_POINT('',(0.499242731645,1.003222027799));
#270 = CARTESIAN_POINT('',(0.808081148327,1.022169708862));
#271 = CARTESIAN_POINT('',(1.146595307495,0.70539284281));
#272 = CARTESIAN_POINT('',(1.149678561274,0.295490148572));
#273 = CARTESIAN_POINT('',(0.81232525847,-2.098687508432E-02));
#274 = CARTESIAN_POINT('',(0.502094685192,1.129778020128E-03));
#275 = ( GEOMETRIC_REPRESENTATION_CONTEXT(2) 
PARAMETRIC_REPRESENTATION_CONTEXT() REPRESENTATION_CONTEXT('2D SPACE',''
  ) );
#276 = ORIENTED_EDGE('',*,*,#127,.T.);
#277 = ORIENTED_EDGE('',*,*,#278,.T.);
#278 = EDGE_CURVE('',#24,#22,#279,.T.);
#279 = SURFACE_CURVE('',#280,(#286,#298),.PCURVE_S1.);
#280 = B_SPLINE_CURVE_WITH_KNOTS('',4,(#281,#282,#283,#284,#285),
  .UNSPECIFIED.,.F.,.F.,(5,5),(0.,1.),.PIECEWISE_BEZIER_KNOTS.);
#281 = CARTESIAN_POINT('',(-3.247485961765E-03,0.246706837167,
    -0.995614831646));
#282 = CARTESIAN_POINT('',(0.768135381705,0.262327089141,-1.033831817679
    ));
#283 = CARTESIAN_POINT('',(1.654683861078,0.237239805097,
    -1.470330818727E-02));
#284 = CARTESIAN_POINT('',(0.757853306682,0.25730795877,1.042112898316)
  );
#285 = CARTESIAN_POINT('',(-2.081772778183E-03,0.243951233725,
    0.999974345167));
#286 = PCURVE('',#144,#287);
#287 = DEFINITIONAL_REPRESENTATION('',(#288),#297);
#288 = B_SPLINE_CURVE_WITH_KNOTS('',7,(#289,#290,#291,#292,#293,#294,
    #295,#296),.UNSPECIFIED.,.F.,.F.,(8,8),(0.,1.),
  .PIECEWISE_BEZIER_KNOTS.);
#289 = CARTESIAN_POINT('',(7.360408408104E-04,3.636127801998E-02));
#290 = CARTESIAN_POINT('',(0.114173065094,2.094100652487E-02));
#291 = CARTESIAN_POINT('',(0.251019608397,-2.973107107394E-03));
#292 = CARTESIAN_POINT('',(0.53822767594,9.510151381929E-02));
#293 = CARTESIAN_POINT('',(0.448070031262,-7.022020624505E-02));
#294 = CARTESIAN_POINT('',(0.755418654869,7.681752459487E-02));
#295 = CARTESIAN_POINT('',(0.889694193916,-4.073612704318E-02));
#296 = CARTESIAN_POINT('',(1.001122862522,1.952959426067E-02));
#297 = ( GEOMETRIC_REPRESENTATION_CONTEXT(2) 
PARAMETRIC_REPRESENTATION_CONTEXT() REPRESENTATION_CONTEXT('2D SPACE',''
  ) );
#298 = PCURVE('',#81,#299);
#299 = DEFINITIONAL_REPRESENTATION('',(#300),#306);
#300 = B_SPLINE_CURVE_WITH_KNOTS('',4,(#301,#302,#303,#304,#305),
  .UNSPECIFIED.,.F.,.F.,(5,5),(0.,1.),.PIECEWISE_BEZIER_KNOTS.);
#301 = CARTESIAN_POINT('',(0.500577015716,2.01700334289E-02));
#302 = CARTESIAN_POINT('',(0.134308960915,3.174599525123E-04));
#303 = CARTESIAN_POINT('',(-0.286913773742,0.490896774626));
#304 = CARTESIAN_POINT('',(0.136140827359,0.997532586098));
#305 = CARTESIAN_POINT('',(0.49694102443,0.978816040358));
#306 = ( GEOMETRIC_REPRESENTATION_CONTEXT(2) 
PARAMETRIC_REPRESENTATION_CONTEXT() REPRESENTATION_CONTEXT('2D SPACE',''
  ) );
#307 = ORIENTED_EDGE('',*,*,#216,.T.);
#308 = ADVANCED_FACE('',(#309),#190,.T.);
#309 = FACE_BOUND('',#310,.F.);
#310 = EDGE_LOOP('',(#311,#312));
#311 = ORIENTED_EDGE('',*,*,#169,.T.);
#312 = ORIENTED_EDGE('',*,*,#246,.T.);
#313 = ADVANCED_FACE('',(#314),#81,.T.);
#314 = FACE_BOUND('',#315,.F.);
#315 = EDGE_LOOP('',(#316,#317));
#316 = ORIENTED_EDGE('',*,*,#21,.T.);
#317 = ORIENTED_EDGE('',*,*,#278,.T.);
#318 = ( GEOMETRIC_REPRESENTATION_CONTEXT(3) 
GLOBAL_UNCERTAINTY_ASSIGNED_CONTEXT((#322)) GLOBAL_UNIT_ASSIGNED_CONTEXT
((#319,#320,#321)) REPRESENTATION_CONTEXT('Context #1',
  '3D Context with UNIT and UNCERTAINTY') );
#319 = ( LENGTH_UNIT() NAMED_UNIT(*) SI_UNIT(.MILLI.,.METRE.) );
#320 = ( NAMED_UNIT(*) PLANE_ANGLE_UNIT() SI_UNIT($,.RADIAN.) );
#321 = ( NAMED_UNIT(*) SI_UNIT($,.STERADIAN.) SOLID_ANGLE_UNIT() );
#322 = UNCERTAINTY_MEASURE_WITH_UNIT(LENGTH_MEASURE(5.E-02),#319,
  'distance_accuracy_value','confusion accuracy');
#323 = PRODUCT_RELATED_PRODUCT_CATEGORY('detail',$,(#7));
#324 = PRODUCT_CATEGORY_RELATIONSHIP('','',#325,#323);
#325 = PRODUCT_CATEGORY('part',$);
#326 = CC_DESIGN_PERSON_AND_ORGANIZATION_ASSIGNMENT(#327,#330,(#6,#5));
#327 = PERSON_AND_ORGANIZATION(#328,#329);
#328 = PERSON('IP127.0.1,workstation-5','','workstation-5,,,',$,$,$);
#329 = ORGANIZATION('IP127.0.1','Unspecified','');
#330 = PERSON_AND_ORGANIZATION_ROLE('creator');
#331 = CC_DESIGN_PERSON_AND_ORGANIZATION_ASSIGNMENT(#327,#332,(#7));
#332 = PERSON_AND_ORGANIZATION_ROLE('design_owner');
#333 = CC_DESIGN_PERSON_AND_ORGANIZATION_ASSIGNMENT(#327,#334,(#6));
#334 = PERSON_AND_ORGANIZATION_ROLE('design_supplier');
#335 = CC_DESIGN_PERSON_AND_ORGANIZATION_ASSIGNMENT(#327,#336,(#337));
#336 = PERSON_AND_ORGANIZATION_ROLE('classification_officer');
#337 = SECURITY_CLASSIFICATION('','',#338);
#338 = SECURITY_CLASSIFICATION_LEVEL('unclassified');
#339 = CC_DESIGN_SECURITY_CLASSIFICATION(#337,(#6));
#340 = CC_DESIGN_DATE_AND_TIME_ASSIGNMENT(#341,#345,(#5));
#341 = DATE_AND_TIME(#342,#343);
#342 = CALENDAR_DATE(2024,3,12);
#343 = LOCAL_TIME(16,7,$,#344);
#344 = COORDINATED_UNIVERSAL_TIME_OFFSET(5,$,.BEHIND.);
#345 = DATE_TIME_ROLE('creation_date');
#346 = CC_DESIGN_DATE_AND_TIME_ASSIGNMENT(#341,#347,(#337));
#347 = DATE_TIME_ROLE('classification_date');
#348 = CC_DESIGN_APPROVAL(#349,(#6,#5,#337));
#349 = APPROVAL(#350,'');
#350 = APPROVAL_STATUS('not_yet_approved');
#351 = APPROVAL_PERSON_ORGANIZATION(#327,#349,#352);
#352 = APPROVAL_ROLE('approver');
#353 = APPROVAL_DATE_TIME(#341,#349);
ENDSEC;
END-ISO-10303-21;
