ISO-10303-21;
HEADER;
FILE_DESCRIPTION(('Open CASCADE Model'),'2;1');
FILE_NAME('Open CASCADE Shape Model','2024-12-03T10:11:14',('Author'),(
    'Open CASCADE'),'Open CASCADE STEP processor 7.5','Open CASCADE 7.5'
  ,'Unknown');
FILE_SCHEMA(('CONFIG_CONTROL_DESIGN'));
ENDSEC;
DATA;
#1 = APPLICATION_PROTOCOL_DEFINITION('international standard',
  'config_control_design',1994,#2);
#2 = APPLICATION_CONTEXT(
'configuration controlled 3D designs of mechanical parts and assemblies'
  );
#3 = SHAPE_DEFINITION_REPRESENTATION(#4,#10);
#4 = PRODUCT_DEFINITION_SHAPE('','',#5);
#5 = PRODUCT_DEFINITION('design','',#6,#9);
#6 = PRODUCT_DEFINITION_FORMATION_WITH_SPECIFIED_SOURCE('','',#7,
  .NOT_KNOWN.);
#7 = PRODUCT('Open CASCADE STEP translator 7.5 7350',
  'Open CASCADE STEP translator 7.5 7350','',(#8));
#8 = MECHANICAL_CONTEXT('',#2,'mechanical');
#9 = DESIGN_CONTEXT('',#2,'design');
#10 = ADVANCED_BREP_SHAPE_REPRESENTATION('',(#11,#15),#275);
#11 = AXIS2_PLACEMENT_3D('',#12,#13,#14);
#12 = CARTESIAN_POINT('',(0.,0.,0.));
#13 = DIRECTION('',(0.,0.,1.));
#14 = DIRECTION('',(1.,0.,-0.));
#15 = MANIFOLD_SOLID_BREP('',#16);
#16 = CLOSED_SHELL('',(#17,#195,#265,#270));
#17 = ADVANCED_FACE('',(#18),#33,.T.);
#18 = FACE_BOUND('',#19,.T.);
#19 = EDGE_LOOP('',(#20,#84,#126,#172));
#20 = ORIENTED_EDGE('',*,*,#21,.T.);
#21 = EDGE_CURVE('',#22,#24,#26,.T.);
#22 = VERTEX_POINT('',#23);
#23 = CARTESIAN_POINT('',(-5.157241970301E-02,-2.443658964088E-03,
    -0.995837623874));
#24 = VERTEX_POINT('',#25);
#25 = CARTESIAN_POINT('',(4.976749109725E-02,-5.387589354844E-03,
    -0.996080219746));
#26 = SURFACE_CURVE('',#27,(#32,#58),.PCURVE_S1.);
#27 = B_SPLINE_CURVE_WITH_KNOTS('',3,(#28,#29,#30,#31),.UNSPECIFIED.,.F.
  ,.F.,(4,4),(0.,1.),.PIECEWISE_BEZIER_KNOTS.);
#28 = CARTESIAN_POINT('',(-5.157241970301E-02,-2.443658964088E-03,
    -0.995837623874));
#29 = CARTESIAN_POINT('',(-5.323756821486E-02,-6.671468254005E-02,
    -0.995474366395));
#30 = CARTESIAN_POINT('',(4.936669540283E-02,-7.036589138568E-02,
    -0.996611350095));
#31 = CARTESIAN_POINT('',(4.976749109725E-02,-5.387589354844E-03,
    -0.996080219746));
#32 = PCURVE('',#33,#50);
#33 = B_SPLINE_SURFACE_WITH_KNOTS('',3,3,(
    (#34,#35,#36,#37)
    ,(#38,#39,#40,#41)
    ,(#42,#43,#44,#45)
    ,(#46,#47,#48,#49
    )),.UNSPECIFIED.,.F.,.F.,.F.,(4,4),(4,4),(0.,1.),(0.,1.),
  .PIECEWISE_BEZIER_KNOTS.);
#34 = CARTESIAN_POINT('',(-5.314349010587E-02,2.332628238946E-03,
    -0.994016051292));
#35 = CARTESIAN_POINT('',(-5.18791965005E-02,-1.835947813982E-04,
    -0.326030020412));
#36 = CARTESIAN_POINT('',(-4.997533141246E-02,3.550565679152E-03,
    0.322311770233));
#37 = CARTESIAN_POINT('',(-4.514788463712E-02,4.941881168634E-03,
    0.992800354958));
#38 = CARTESIAN_POINT('',(-4.539439061396E-02,-5.374578168614E-02,
    -0.988879371552));
#39 = CARTESIAN_POINT('',(-4.635580082606E-02,-5.216368441757E-02,
    -0.341233204613));
#40 = CARTESIAN_POINT('',(-4.146558909487E-02,-4.481000744366E-02,
    0.336397981479));
#41 = CARTESIAN_POINT('',(-3.617720333681E-02,-4.933049969425E-02,
    0.994078190827));
#42 = CARTESIAN_POINT('',(3.60369777851E-02,-6.059562934458E-02,
    -0.994470333718));
#43 = CARTESIAN_POINT('',(4.403989893913E-02,-6.79794671164E-02,
    -0.317017400667));
#44 = CARTESIAN_POINT('',(4.18057576301E-02,-6.21959185813E-02,
    0.334654945629));
#45 = CARTESIAN_POINT('',(4.292195720116E-02,-5.964878083704E-02,
    0.994615755556));
#46 = CARTESIAN_POINT('',(4.695416614413E-02,-5.952894221991E-03,
    -0.989621520042));
#47 = CARTESIAN_POINT('',(5.354191819814E-02,-6.715920614966E-03,
    -0.334344736888));
#48 = CARTESIAN_POINT('',(5.0232515962E-02,-3.071222020925E-03,
    0.335922313757));
#49 = CARTESIAN_POINT('',(5.220318958163E-02,-3.725111018866E-03,
    0.998171448708));
#50 = DEFINITIONAL_REPRESENTATION('',(#51),#57);
#51 = B_SPLINE_CURVE_WITH_KNOTS('',4,(#52,#53,#54,#55,#56),
  .UNSPECIFIED.,.F.,.F.,(5,5),(0.,1.),.PIECEWISE_BEZIER_KNOTS.);
#52 = CARTESIAN_POINT('',(3.014832087572E-02,-1.129067804945E-03));
#53 = CARTESIAN_POINT('',(0.324830462466,-1.790827232209E-03));
#54 = CARTESIAN_POINT('',(0.52524803113,-2.240899349699E-03));
#55 = CARTESIAN_POINT('',(0.718156529167,-2.674108557715E-03));
#56 = CARTESIAN_POINT('',(1.006313422038,-3.321214416792E-03));
#57 = ( GEOMETRIC_REPRESENTATION_CONTEXT(2) 
PARAMETRIC_REPRESENTATION_CONTEXT() REPRESENTATION_CONTEXT('2D SPACE',''
  ) );
#58 = PCURVE('',#59,#76);
#59 = B_SPLINE_SURFACE_WITH_KNOTS('',3,3,(
    (#60,#61,#62,#63)
    ,(#64,#65,#66,#67)
    ,(#68,#69,#70,#71)
    ,(#72,#73,#74,#75
    )),.UNSPECIFIED.,.F.,.F.,.F.,(4,4),(4,4),(0.,1.),(0.,1.),
  .PIECEWISE_BEZIER_KNOTS.);
#60 = CARTESIAN_POINT('',(5.401456728578E-02,-5.305128544569E-02,
    -0.996190488338));
#61 = CARTESIAN_POINT('',(5.450552539344E-02,-1.75348007009E-02,
    -0.996364548025));
#62 = CARTESIAN_POINT('',(5.398023859435E-02,1.769986336182E-02,
    -0.995541216751));
#63 = CARTESIAN_POINT('',(5.45333661139E-02,5.250901728868E-02,
    -0.996064066887));
#64 = CARTESIAN_POINT('',(1.883353076094E-02,-5.218332520482E-02,
    -0.996247613309));
#65 = CARTESIAN_POINT('',(1.808144565663E-02,-1.694832208774E-02,
    -0.995171978005));
#66 = CARTESIAN_POINT('',(1.941462367587E-02,1.748516629253E-02,
    -0.996411719688));
#67 = CARTESIAN_POINT('',(1.86624762631E-02,5.367341549721E-02,
    -0.995720162263));
#68 = CARTESIAN_POINT('',(-1.724789985609E-02,-5.249556809451E-02,
    -0.99621074227));
#69 = CARTESIAN_POINT('',(-1.64636990031E-02,-1.776775507717E-02,
    -0.996525882209));
#70 = CARTESIAN_POINT('',(-1.701004258614E-02,1.870027234257E-02,
    -0.995487781552));
#71 = CARTESIAN_POINT('',(-1.70178807815E-02,5.294177935782E-02,
    -0.996270331311));
#72 = CARTESIAN_POINT('',(-5.22781573236E-02,-5.305128544569E-02,
    -0.996192157269));
#73 = CARTESIAN_POINT('',(-5.227846219694E-02,-1.758468066775E-02,
    -0.99507983427));
#74 = CARTESIAN_POINT('',(-5.27545822753E-02,1.7284751227E-02,
    -0.996447908789));
#75 = CARTESIAN_POINT('',(-5.233919247985E-02,5.290574580431E-02,
    -0.995328366756));
#76 = DEFINITIONAL_REPRESENTATION('',(#77),#83);
#77 = B_SPLINE_CURVE_WITH_KNOTS('',4,(#78,#79,#80,#81,#82),
  .UNSPECIFIED.,.F.,.F.,(5,5),(0.,1.),.PIECEWISE_BEZIER_KNOTS.);
#78 = CARTESIAN_POINT('',(0.991731639716,0.47798153549));
#79 = CARTESIAN_POINT('',(1.005214401672,2.184044843475E-02));
#80 = CARTESIAN_POINT('',(0.523732664522,-0.155890464492));
#81 = CARTESIAN_POINT('',(4.451741027146E-02,-1.278502315533E-02));
#82 = CARTESIAN_POINT('',(4.203906497341E-02,0.448580453522));
#83 = ( GEOMETRIC_REPRESENTATION_CONTEXT(2) 
PARAMETRIC_REPRESENTATION_CONTEXT() REPRESENTATION_CONTEXT('2D SPACE',''
  ) );
#84 = ORIENTED_EDGE('',*,*,#85,.T.);
#85 = EDGE_CURVE('',#24,#86,#88,.T.);
#86 = VERTEX_POINT('',#87);
#87 = CARTESIAN_POINT('',(4.944569213937E-02,6.328644036936E-04,
    1.000748604536));
#88 = SURFACE_CURVE('',#89,(#93,#101),.PCURVE_S1.);
#89 = B_SPLINE_CURVE_WITH_KNOTS('',2,(#90,#91,#92),.UNSPECIFIED.,.F.,.F.
  ,(3,3),(0.,1.),.PIECEWISE_BEZIER_KNOTS.);
#90 = CARTESIAN_POINT('',(4.976749109725E-02,-5.387589354844E-03,
    -0.996080219746));
#91 = CARTESIAN_POINT('',(5.70041207247E-02,6.690863750546E-03,
    2.25523916228E-03));
#92 = CARTESIAN_POINT('',(4.944569213937E-02,6.328644036936E-04,
    1.000748604536));
#93 = PCURVE('',#33,#94);
#94 = DEFINITIONAL_REPRESENTATION('',(#95),#100);
#95 = B_SPLINE_CURVE_WITH_KNOTS('',3,(#96,#97,#98,#99),.UNSPECIFIED.,.F.
  ,.F.,(4,4),(0.,1.),.PIECEWISE_BEZIER_KNOTS.);
#96 = CARTESIAN_POINT('',(1.006313422038,-3.321214416792E-03));
#97 = CARTESIAN_POINT('',(1.010279426076,0.335500463726));
#98 = CARTESIAN_POINT('',(1.014150372528,0.666201229669));
#99 = CARTESIAN_POINT('',(1.018071545217,1.001192898438));
#100 = ( GEOMETRIC_REPRESENTATION_CONTEXT(2) 
PARAMETRIC_REPRESENTATION_CONTEXT() REPRESENTATION_CONTEXT('2D SPACE',''
  ) );
#101 = PCURVE('',#102,#119);
#102 = B_SPLINE_SURFACE_WITH_KNOTS('',3,3,(
    (#103,#104,#105,#106)
    ,(#107,#108,#109,#110)
    ,(#111,#112,#113,#114)
    ,(#115,#116,#117,#118
    )),.UNSPECIFIED.,.F.,.F.,.F.,(4,4),(4,4),(0.,1.),(0.,1.),
  .PIECEWISE_BEZIER_KNOTS.);
#103 = CARTESIAN_POINT('',(5.016495659947E-02,6.564049981534E-04,
    -0.997355341911));
#104 = CARTESIAN_POINT('',(4.739260548109E-02,4.994893233201E-04,
    -0.325366084469));
#105 = CARTESIAN_POINT('',(5.739105068659E-02,2.967996338181E-03,
    0.332006240774));
#106 = CARTESIAN_POINT('',(4.891373589635E-02,9.463219903409E-04,
    0.999714970589));
#107 = CARTESIAN_POINT('',(3.737716443294E-02,4.970470264638E-02,
    -0.99303455344));
#108 = CARTESIAN_POINT('',(5.649719405898E-02,5.452330644341E-02,
    -0.331737367879));
#109 = CARTESIAN_POINT('',(3.970734843083E-02,5.604339331018E-02,
    0.339095646762));
#110 = CARTESIAN_POINT('',(4.203926722675E-02,5.382571105914E-02,
    0.997145075179));
#111 = CARTESIAN_POINT('',(-3.419631521242E-02,5.409743212074E-02,
    -0.987154497653));
#112 = CARTESIAN_POINT('',(-4.557056960006E-02,4.727017623976E-02,
    -0.330537594841));
#113 = CARTESIAN_POINT('',(-3.676398814641E-02,5.587230645845E-02,
    0.328471987067));
#114 = CARTESIAN_POINT('',(-3.623160288935E-02,6.164140315442E-02,
    0.997274300021));
#115 = CARTESIAN_POINT('',(-4.849837347865E-02,-1.418790314347E-03,
    -0.998331904411));
#116 = CARTESIAN_POINT('',(-5.195284747759E-02,6.622977408202E-03,
    -0.332102948131));
#117 = CARTESIAN_POINT('',(-4.241772843104E-02,4.21776564854E-03,
    0.332842343305));
#118 = CARTESIAN_POINT('',(-4.923079535365E-02,1.571932341903E-03,
    0.992390751839));
#119 = DEFINITIONAL_REPRESENTATION('',(#120),#125);
#120 = B_SPLINE_CURVE_WITH_KNOTS('',3,(#121,#122,#123,#124),
  .UNSPECIFIED.,.F.,.F.,(4,4),(0.,1.),.PIECEWISE_BEZIER_KNOTS.);
#121 = CARTESIAN_POINT('',(-2.132653258492E-02,7.716163696477E-04));
#122 = CARTESIAN_POINT('',(-1.506293773183E-02,0.330573134175));
#123 = CARTESIAN_POINT('',(-8.65035325504E-03,0.668219508679));
#124 = CARTESIAN_POINT('',(-2.339608481389E-03,1.00050364481));
#125 = ( GEOMETRIC_REPRESENTATION_CONTEXT(2) 
PARAMETRIC_REPRESENTATION_CONTEXT() REPRESENTATION_CONTEXT('2D SPACE',''
  ) );
#126 = ORIENTED_EDGE('',*,*,#127,.F.);
#127 = EDGE_CURVE('',#128,#86,#130,.T.);
#128 = VERTEX_POINT('',#129);
#129 = CARTESIAN_POINT('',(-4.472687933594E-02,-1.776179143538E-03,
    1.000173434615));
#130 = SURFACE_CURVE('',#131,(#136,#146),.PCURVE_S1.);
#131 = B_SPLINE_CURVE_WITH_KNOTS('',3,(#132,#133,#134,#135),
  .UNSPECIFIED.,.F.,.F.,(4,4),(0.,1.),.PIECEWISE_BEZIER_KNOTS.);
#132 = CARTESIAN_POINT('',(-4.472687933594E-02,-1.776179143538E-03,
    1.000173434615));
#133 = CARTESIAN_POINT('',(-4.359453409527E-02,-6.208799613346E-02,
    1.000821136277));
#134 = CARTESIAN_POINT('',(5.089397835764E-02,-5.900146433805E-02,
    1.000325775413));
#135 = CARTESIAN_POINT('',(4.944569213937E-02,6.328644036936E-04,
    1.000748604536));
#136 = PCURVE('',#33,#137);
#137 = DEFINITIONAL_REPRESENTATION('',(#138),#145);
#138 = B_SPLINE_CURVE_WITH_KNOTS('',5,(#139,#140,#141,#142,#143,#144),
  .UNSPECIFIED.,.F.,.F.,(6,6),(0.,1.),.PIECEWISE_BEZIER_KNOTS.);
#139 = CARTESIAN_POINT('',(4.889095391498E-02,1.003401973979));
#140 = CARTESIAN_POINT('',(0.279512033129,1.002876314066));
#141 = CARTESIAN_POINT('',(0.326424672385,1.002769385012));
#142 = CARTESIAN_POINT('',(0.613112427216,1.00211593104));
#143 = CARTESIAN_POINT('',(0.814958266344,1.001655859191));
#144 = CARTESIAN_POINT('',(1.018071545217,1.001192898438));
#145 = ( GEOMETRIC_REPRESENTATION_CONTEXT(2) 
PARAMETRIC_REPRESENTATION_CONTEXT() REPRESENTATION_CONTEXT('2D SPACE',''
  ) );
#146 = PCURVE('',#147,#164);
#147 = B_SPLINE_SURFACE_WITH_KNOTS('',3,3,(
    (#148,#149,#150,#151)
    ,(#152,#153,#154,#155)
    ,(#156,#157,#158,#159)
    ,(#160,#161,#162,#163
    )),.UNSPECIFIED.,.F.,.F.,.F.,(4,4),(4,4),(0.,1.),(0.,1.),
  .PIECEWISE_BEZIER_KNOTS.);
#148 = CARTESIAN_POINT('',(-4.522668942809E-02,-4.668352007866E-02,
    1.000369310379));
#149 = CARTESIAN_POINT('',(-4.537218464901E-02,-1.451243428987E-02,
    1.00058400432));
#150 = CARTESIAN_POINT('',(-4.517395005029E-02,1.694095667779E-02,
    1.000540027164));
#151 = CARTESIAN_POINT('',(-4.504358395934E-02,4.874494671822E-02,
    1.000633955002));
#152 = CARTESIAN_POINT('',(-1.370516594094E-02,-4.659368005394E-02,
    1.000107205661));
#153 = CARTESIAN_POINT('',(-1.316406978699E-02,-1.527338873366E-02,
    1.000874410808));
#154 = CARTESIAN_POINT('',(-1.304949943709E-02,1.721101700278E-02,
    1.000258528585));
#155 = CARTESIAN_POINT('',(-1.346612558119E-02,4.881200506816E-02,
    1.000582385273));
#156 = CARTESIAN_POINT('',(1.872406639844E-02,-4.654879985915E-02,
    1.000530170923));
#157 = CARTESIAN_POINT('',(1.850163546163E-02,-1.484727262901E-02,
    1.000630952126));
#158 = CARTESIAN_POINT('',(1.872187608876E-02,1.693803989916E-02,
    1.000957266084));
#159 = CARTESIAN_POINT('',(1.878713862957E-02,4.905055188373E-02,
    1.000528253132));
#160 = CARTESIAN_POINT('',(5.072057619691E-02,-4.653093218803E-02,
    1.000180721283));
#161 = CARTESIAN_POINT('',(5.071336367494E-02,-1.428948030262E-02,
    1.000725289691));
#162 = CARTESIAN_POINT('',(5.05352158385E-02,1.744630330936E-02,
    1.000722042474));
#163 = CARTESIAN_POINT('',(5.035436525941E-02,4.941633343697E-02,
    1.000620245934));
#164 = DEFINITIONAL_REPRESENTATION('',(#165),#171);
#165 = B_SPLINE_CURVE_WITH_KNOTS('',4,(#166,#167,#168,#169,#170),
  .UNSPECIFIED.,.F.,.F.,(5,5),(0.,1.),.PIECEWISE_BEZIER_KNOTS.);
#166 = CARTESIAN_POINT('',(5.419390676096E-03,0.469087706213));
#167 = CARTESIAN_POINT('',(1.555138786752E-02,-5.978101533319E-03));
#168 = CARTESIAN_POINT('',(0.512886034958,-0.141593034576));
#169 = CARTESIAN_POINT('',(0.997322390704,2.345998812052E-02));
#170 = CARTESIAN_POINT('',(0.987891454489,0.490652117432));
#171 = ( GEOMETRIC_REPRESENTATION_CONTEXT(2) 
PARAMETRIC_REPRESENTATION_CONTEXT() REPRESENTATION_CONTEXT('2D SPACE',''
  ) );
#172 = ORIENTED_EDGE('',*,*,#173,.T.);
#173 = EDGE_CURVE('',#128,#22,#174,.T.);
#174 = SURFACE_CURVE('',#175,(#179,#187),.PCURVE_S1.);
#175 = B_SPLINE_CURVE_WITH_KNOTS('',2,(#176,#177,#178),.UNSPECIFIED.,.F.
  ,.F.,(3,3),(0.,1.),.PIECEWISE_BEZIER_KNOTS.);
#176 = CARTESIAN_POINT('',(-4.472687933594E-02,-1.776179143538E-03,
    1.000173434615));
#177 = CARTESIAN_POINT('',(-5.106846822285E-02,3.482001997493E-04,
    2.150589592616E-03));
#178 = CARTESIAN_POINT('',(-5.157241970301E-02,-2.443658964088E-03,
    -0.995837623874));
#179 = PCURVE('',#33,#180);
#180 = DEFINITIONAL_REPRESENTATION('',(#181),#186);
#181 = B_SPLINE_CURVE_WITH_KNOTS('',3,(#182,#183,#184,#185),
  .UNSPECIFIED.,.F.,.F.,(4,4),(0.,1.),.PIECEWISE_BEZIER_KNOTS.);
#182 = CARTESIAN_POINT('',(4.889095391498E-02,1.003401973979));
#183 = CARTESIAN_POINT('',(4.270418760793E-02,0.671815756041));
#184 = CARTESIAN_POINT('',(3.635759440445E-02,0.331663448246));
#185 = CARTESIAN_POINT('',(3.014832087572E-02,-1.129067804945E-03));
#186 = ( GEOMETRIC_REPRESENTATION_CONTEXT(2) 
PARAMETRIC_REPRESENTATION_CONTEXT() REPRESENTATION_CONTEXT('2D SPACE',''
  ) );
#187 = PCURVE('',#102,#188);
#188 = DEFINITIONAL_REPRESENTATION('',(#189),#194);
#189 = B_SPLINE_CURVE_WITH_KNOTS('',3,(#190,#191,#192,#193),
  .UNSPECIFIED.,.F.,.F.,(4,4),(0.,1.),.PIECEWISE_BEZIER_KNOTS.);
#190 = CARTESIAN_POINT('',(0.972939183068,1.003420223067));
#191 = CARTESIAN_POINT('',(0.985350824333,0.667594844195));
#192 = CARTESIAN_POINT('',(0.997683341696,0.333910343715));
#193 = CARTESIAN_POINT('',(1.009971450708,1.427412842015E-03));
#194 = ( GEOMETRIC_REPRESENTATION_CONTEXT(2) 
PARAMETRIC_REPRESENTATION_CONTEXT() REPRESENTATION_CONTEXT('2D SPACE',''
  ) );
#195 = ADVANCED_FACE('',(#196),#102,.T.);
#196 = FACE_BOUND('',#197,.T.);
#197 = EDGE_LOOP('',(#198,#241,#242,#264));
#198 = ORIENTED_EDGE('',*,*,#199,.T.);
#199 = EDGE_CURVE('',#24,#22,#200,.T.);
#200 = SURFACE_CURVE('',#201,(#206,#212),.PCURVE_S1.);
#201 = B_SPLINE_CURVE_WITH_KNOTS('',3,(#202,#203,#204,#205),
  .UNSPECIFIED.,.F.,.F.,(4,4),(0.,1.),.PIECEWISE_BEZIER_KNOTS.);
#202 = CARTESIAN_POINT('',(4.976749109725E-02,-5.387589354844E-03,
    -0.996080219746));
#203 = CARTESIAN_POINT('',(5.288750501977E-02,6.045424585405E-02,
    -0.995644083449));
#204 = CARTESIAN_POINT('',(-5.258655957653E-02,6.490524518777E-02,
    -0.995881960071));
#205 = CARTESIAN_POINT('',(-5.157241970301E-02,-2.443658964088E-03,
    -0.995837623874));
#206 = PCURVE('',#102,#207);
#207 = DEFINITIONAL_REPRESENTATION('',(#208),#211);
#208 = B_SPLINE_CURVE_WITH_KNOTS('',1,(#209,#210),.UNSPECIFIED.,.F.,.F.,
  (2,2),(0.,1.),.PIECEWISE_BEZIER_KNOTS.);
#209 = CARTESIAN_POINT('',(-2.132653258492E-02,7.716163696477E-04));
#210 = CARTESIAN_POINT('',(1.009971450708,1.427412842015E-03));
#211 = ( GEOMETRIC_REPRESENTATION_CONTEXT(2) 
PARAMETRIC_REPRESENTATION_CONTEXT() REPRESENTATION_CONTEXT('2D SPACE',''
  ) );
#212 = PCURVE('',#59,#213);
#213 = DEFINITIONAL_REPRESENTATION('',(#214),#240);
#214 = B_SPLINE_CURVE_WITH_KNOTS('',3,(#215,#216,#217,#218,#219,#220,
    #221,#222,#223,#224,#225,#226,#227,#228,#229,#230,#231,#232,#233,
    #234,#235,#236,#237,#238,#239),.UNSPECIFIED.,.F.,.F.,(4,1,1,1,1,1,1,
    1,1,1,1,1,1,1,1,1,1,1,1,1,1,1,4),(0.,4.545454545455E-02,
    9.090909090909E-02,0.136363636364,0.181818181818,0.227272727273,
    0.272727272727,0.318181818182,0.363636363636,0.409090909091,
    0.454545454545,0.5,0.545454545455,0.590909090909,0.636363636364,
    0.681818181818,0.727272727273,0.772727272727,0.818181818182,
    0.863636363636,0.909090909091,0.954545454545,1.),
  .QUASI_UNIFORM_KNOTS.);
#215 = CARTESIAN_POINT('',(4.203906497341E-02,0.448580453522));
#216 = CARTESIAN_POINT('',(4.072989017736E-02,0.476922545264));
#217 = CARTESIAN_POINT('',(4.232876982109E-02,0.531206362517));
#218 = CARTESIAN_POINT('',(5.626026050551E-02,0.6053329869));
#219 = CARTESIAN_POINT('',(8.063635825474E-02,0.672070504509));
#220 = CARTESIAN_POINT('',(0.114263665744,0.731300918721));
#221 = CARTESIAN_POINT('',(0.155919799122,0.782941644328));
#222 = CARTESIAN_POINT('',(0.204393426725,0.8269658568));
#223 = CARTESIAN_POINT('',(0.25851933889,0.863398742333));
#224 = CARTESIAN_POINT('',(0.317183222004,0.892288708944));
#225 = CARTESIAN_POINT('',(0.37930527723,0.913671587278));
#226 = CARTESIAN_POINT('',(0.44381392703,0.927542665245));
#227 = CARTESIAN_POINT('',(0.509622040604,0.933846820689));
#228 = CARTESIAN_POINT('',(0.575613699435,0.932489267378));
#229 = CARTESIAN_POINT('',(0.640644534236,0.923361300037));
#230 = CARTESIAN_POINT('',(0.703553385246,0.906368758506));
#231 = CARTESIAN_POINT('',(0.763178551999,0.881448733491));
#232 = CARTESIAN_POINT('',(0.818370479615,0.848564603836));
#233 = CARTESIAN_POINT('',(0.867996242458,0.807680149095));
#234 = CARTESIAN_POINT('',(0.910937213091,0.758726486486));
#235 = CARTESIAN_POINT('',(0.94608545551,0.701581218846));
#236 = CARTESIAN_POINT('',(0.972339885889,0.636081930021));
#237 = CARTESIAN_POINT('',(0.988605977952,0.562058101618));
#238 = CARTESIAN_POINT('',(0.992046944122,0.506974356194));
#239 = CARTESIAN_POINT('',(0.991731639716,0.47798153549));
#240 = ( GEOMETRIC_REPRESENTATION_CONTEXT(2) 
PARAMETRIC_REPRESENTATION_CONTEXT() REPRESENTATION_CONTEXT('2D SPACE',''
  ) );
#241 = ORIENTED_EDGE('',*,*,#173,.F.);
#242 = ORIENTED_EDGE('',*,*,#243,.F.);
#243 = EDGE_CURVE('',#86,#128,#244,.T.);
#244 = SURFACE_CURVE('',#245,(#250,#256),.PCURVE_S1.);
#245 = B_SPLINE_CURVE_WITH_KNOTS('',3,(#246,#247,#248,#249),
  .UNSPECIFIED.,.F.,.F.,(4,4),(0.,1.),.PIECEWISE_BEZIER_KNOTS.);
#246 = CARTESIAN_POINT('',(4.944569213937E-02,6.328644036936E-04,
    1.000748604536));
#247 = CARTESIAN_POINT('',(5.055777213971E-02,6.278744019126E-02,
    1.000669361817));
#248 = CARTESIAN_POINT('',(-4.696454260313E-02,5.894595024675E-02,
    1.000340585368));
#249 = CARTESIAN_POINT('',(-4.472687933594E-02,-1.776179143538E-03,
    1.000173434615));
#250 = PCURVE('',#102,#251);
#251 = DEFINITIONAL_REPRESENTATION('',(#252),#255);
#252 = B_SPLINE_CURVE_WITH_KNOTS('',1,(#253,#254),.UNSPECIFIED.,.F.,.F.,
  (2,2),(0.,1.),.PIECEWISE_BEZIER_KNOTS.);
#253 = CARTESIAN_POINT('',(-2.339608481389E-03,1.00050364481));
#254 = CARTESIAN_POINT('',(0.972939183068,1.003420223067));
#255 = ( GEOMETRIC_REPRESENTATION_CONTEXT(2) 
PARAMETRIC_REPRESENTATION_CONTEXT() REPRESENTATION_CONTEXT('2D SPACE',''
  ) );
#256 = PCURVE('',#147,#257);
#257 = DEFINITIONAL_REPRESENTATION('',(#258),#263);
#258 = B_SPLINE_CURVE_WITH_KNOTS('',3,(#259,#260,#261,#262),
  .UNSPECIFIED.,.F.,.F.,(4,4),(0.,1.),.PIECEWISE_BEZIER_KNOTS.);
#259 = CARTESIAN_POINT('',(0.987891454489,0.490652117432));
#260 = CARTESIAN_POINT('',(1.002129960397,1.139508381264));
#261 = CARTESIAN_POINT('',(-1.955537654933E-02,1.106719999296));
#262 = CARTESIAN_POINT('',(5.419390676096E-03,0.469087706213));
#263 = ( GEOMETRIC_REPRESENTATION_CONTEXT(2) 
PARAMETRIC_REPRESENTATION_CONTEXT() REPRESENTATION_CONTEXT('2D SPACE',''
  ) );
#264 = ORIENTED_EDGE('',*,*,#85,.F.);
#265 = ADVANCED_FACE('',(#266),#59,.T.);
#266 = FACE_BOUND('',#267,.F.);
#267 = EDGE_LOOP('',(#268,#269));
#268 = ORIENTED_EDGE('',*,*,#199,.T.);
#269 = ORIENTED_EDGE('',*,*,#21,.T.);
#270 = ADVANCED_FACE('',(#271),#147,.T.);
#271 = FACE_BOUND('',#272,.T.);
#272 = EDGE_LOOP('',(#273,#274));
#273 = ORIENTED_EDGE('',*,*,#127,.T.);
#274 = ORIENTED_EDGE('',*,*,#243,.T.);
#275 = ( GEOMETRIC_REPRESENTATION_CONTEXT(3) 
GLOBAL_UNCERTAINTY_ASSIGNED_CONTEXT((#279)) GLOBAL_UNIT_ASSIGNED_CONTEXT
((#276,#277,#278)) REPRESENTATION_CONTEXT('Context #1',
  '3D Context with UNIT and UNCERTAINTY') );
#276 = ( LENGTH_UNIT() NAMED_UNIT(*) SI_UNIT(.MILLI.,.METRE.) );
#277 = ( NAMED_UNIT(*) PLANE_ANGLE_UNIT() SI_UNIT($,.RADIAN.) );
#278 = ( NAMED_UNIT(*) SI_UNIT($,.STERADIAN.) SOLID_ANGLE_UNIT() );
#279 = UNCERTAINTY_MEASURE_WITH_UNIT(LENGTH_MEASURE(1.E-02),#276,
  'distance_accuracy_value','confusion accuracy');
#280 = PRODUCT_RELATED_PRODUCT_CATEGORY('detail',$,(#7));
#281 = PRODUCT_CATEGORY_RELATIONSHIP('','',#282,#280);
#282 = PRODUCT_CATEGORY('part',$);
#283 = CC_DESIGN_PERSON_AND_ORGANIZATION_ASSIGNMENT(#284,#287,(#6,#5));
#284 = PERSON_AND_ORGANIZATION(#285,#286);
#285 = PERSON('IP127.0.1,workstation-5','','workstation-5,,,',$,$,$);
#286 = ORGANIZATION('IP127.0.1','Unspecified','');
#287 = PERSON_AND_ORGANIZATION_ROLE('creator');
#288 = CC_DESIGN_PERSON_AND_ORGANIZATION_ASSIGNMENT(#284,#289,(#7));
#289 = PERSON_AND_ORGANIZATION_ROLE('design_owner');
#290 = CC_DESIGN_PERSON_AND_ORGANIZATION_ASSIGNMENT(#284,#291,(#6));
#291 = PERSON_AND_ORGANIZATION_ROLE('design_supplier');
#292 = CC_DESIGN_PERSON_AND_ORGANIZATION_ASSIGNMENT(#284,#293,(#294));
#293 = PERSON_AND_ORGANIZATION_ROLE('classification_officer');
#294 = SECURITY_CLASSIFICATION('','',#295);
#295 = SECURITY_CLASSIFICATION_LEVEL('unclassified');
#296 = CC_DESIGN_SECURITY_CLASSIFICATION(#294,(#6));
#297 = CC_DESIGN_DATE_AND_TIME_ASSIGNMENT(#298,#302,(#5));
#298 = DATE_AND_TIME(#299,#300);
#299 = CALENDAR_DATE(2024,1,12);
#300 = LOCAL_TIME(18,26,$,#301);
#301 = COORDINATED_UNIVERSAL_TIME_OFFSET(5,$,.BEHIND.);
#302 = DATE_TIME_ROLE('creation_date');
#303 = CC_DESIGN_DATE_AND_TIME_ASSIGNMENT(#298,#304,(#294));
#304 = DATE_TIME_ROLE('classification_date');
#305 = CC_DESIGN_APPROVAL(#306,(#6,#5,#294));
#306 = APPROVAL(#307,'');
#307 = APPROVAL_STATUS('not_yet_approved');
#308 = APPROVAL_PERSON_ORGANIZATION(#284,#306,#309);
#309 = APPROVAL_ROLE('approver');
#310 = APPROVAL_DATE_TIME(#298,#306);
ENDSEC;
END-ISO-10303-21;
