ISO-10303-21;
HEADER;
FILE_DESCRIPTION(('Open CASCADE Model'),'2;1');
FILE_NAME('Open CASCADE Shape Model','2024-12-03T16:11:42',('Author'),(
    'Open CASCADE'),'Open CASCADE STEP processor 7.5','Open CASCADE 7.5'
  ,'Unknown');
FILE_SCHEMA(('CONFIG_CONTROL_DESIGN'));
ENDSEC;
DATA;
#1 = APPLICATION_PROTOCOL_DEFINITION('international standard',
  'config_control_design',1994,#2);
#2 = APPLICATION_CONTEXT(
'configuration controlled 3D designs of mechanical parts and assemblies'
  );
#3 = SHAPE_DEFINITION_REPRESENTATION(#4,#10);
#4 = PRODUCT_DEFINITION_SHAPE('','',#5);
#5 = PRODUCT_DEFINITION('design','',#6,#9);
#6 = PRODUCT_DEFINITION_FORMATION_WITH_SPECIFIED_SOURCE('','',#7,
  .NOT_KNOWN.);
#7 = PRODUCT('Open CASCADE STEP translator 7.5 20',
  'Open CASCADE STEP translator 7.5 20','',(#8));
#8 = MECHANICAL_CONTEXT('',#2,'mechanical');
#9 = DESIGN_CONTEXT('',#2,'design');
#10 = ADVANCED_BREP_SHAPE_REPRESENTATION('',(#11,#15),#224);
#11 = AXIS2_PLACEMENT_3D('',#12,#13,#14);
#12 = CARTESIAN_POINT('',(0.,0.,0.));
#13 = DIRECTION('',(0.,0.,1.));
#14 = DIRECTION('',(1.,0.,-0.));
#15 = MANIFOLD_SOLID_BREP('',#16);
#16 = CLOSED_SHELL('',(#17,#218));
#17 = ADVANCED_FACE('',(#18),#34,.T.);
#18 = FACE_BOUND('',#19,.T.);
#19 = EDGE_LOOP('',(#20,#125,#164));
#20 = ORIENTED_EDGE('',*,*,#21,.T.);
#21 = EDGE_CURVE('',#22,#24,#26,.T.);
#22 = VERTEX_POINT('',#23);
#23 = CARTESIAN_POINT('',(1.067310286453E-02,4.835471510887E-03,
    0.49590086937));
#24 = VERTEX_POINT('',#25);
#25 = CARTESIAN_POINT('',(-1.472385978559E-03,0.779025949538,
    -0.413769345731));
#26 = SURFACE_CURVE('',#27,(#33,#79),.PCURVE_S1.);
#27 = B_SPLINE_CURVE_WITH_KNOTS('',4,(#28,#29,#30,#31,#32),
  .UNSPECIFIED.,.F.,.F.,(5,5),(0.,1.),.PIECEWISE_BEZIER_KNOTS.);
#28 = CARTESIAN_POINT('',(1.067310286453E-02,4.835471510887E-03,
    0.49590086937));
#29 = CARTESIAN_POINT('',(3.258176656019E-02,0.399073698962,
    0.522408804025));
#30 = CARTESIAN_POINT('',(1.665059273622E-02,0.674262296437,
    0.361674379928));
#31 = CARTESIAN_POINT('',(2.038138569496E-02,1.076735429698,
    -0.118971850232));
#32 = CARTESIAN_POINT('',(-1.472385978559E-03,0.779025949538,
    -0.413769345731));
#33 = PCURVE('',#34,#51);
#34 = B_SPLINE_SURFACE_WITH_KNOTS('',3,3,(
    (#35,#36,#37,#38)
    ,(#39,#40,#41,#42)
    ,(#43,#44,#45,#46)
    ,(#47,#48,#49,#50
    )),.UNSPECIFIED.,.F.,.F.,.F.,(4,4),(4,4),(0.,1.),(0.,1.),
  .PIECEWISE_BEZIER_KNOTS.);
#35 = CARTESIAN_POINT('',(0.213913351297,-0.738314151764,0.477105766535)
  );
#36 = CARTESIAN_POINT('',(0.315703482966,-1.187655088638,0.326594256563)
  );
#37 = CARTESIAN_POINT('',(0.25789450493,-1.164253367676,-0.517038129686)
  );
#38 = CARTESIAN_POINT('',(0.261276632547,-0.664583683014,-0.553900063038
    ));
#39 = CARTESIAN_POINT('',(-0.524177670706,-0.702155280885,0.50817987375)
  );
#40 = CARTESIAN_POINT('',(-1.044797914724,-1.171702858407,0.331806604978
    ));
#41 = CARTESIAN_POINT('',(-1.146466594768,-1.121229330419,
    -0.544871773418));
#42 = CARTESIAN_POINT('',(-0.460595640393,-0.620700147156,
    -0.567173214216));
#43 = CARTESIAN_POINT('',(-0.488836094027,0.554648105227,0.509266299207)
  );
#44 = CARTESIAN_POINT('',(-1.005061354942,1.05381317893,0.276604043664)
  );
#45 = CARTESIAN_POINT('',(-1.05883250751,1.072416680572,-0.400144382343)
  );
#46 = CARTESIAN_POINT('',(-0.471131664047,0.563655822227,-0.578256130874
    ));
#47 = CARTESIAN_POINT('',(0.270309835672,0.569791316986,0.484429985285)
  );
#48 = CARTESIAN_POINT('',(0.31312017669,0.9891039681,0.269679289871));
#49 = CARTESIAN_POINT('',(0.377069878201,1.05852074659,-0.406510032997)
  );
#50 = CARTESIAN_POINT('',(0.262253195047,0.530240535736,-0.604437172413)
  );
#51 = DEFINITIONAL_REPRESENTATION('',(#52),#78);
#52 = B_SPLINE_CURVE_WITH_KNOTS('',3,(#53,#54,#55,#56,#57,#58,#59,#60,
    #61,#62,#63,#64,#65,#66,#67,#68,#69,#70,#71,#72,#73,#74,#75,#76,#77)
  ,.UNSPECIFIED.,.F.,.F.,(4,1,1,1,1,1,1,1,1,1,1,1,1,1,1,1,1,1,1,1,1,1,4)
  ,(0.,4.545454545455E-02,9.090909090909E-02,0.136363636364,
    0.181818181818,0.227272727273,0.272727272727,0.318181818182,
    0.363636363636,0.409090909091,0.454545454545,0.5,0.545454545455,
    0.590909090909,0.636363636364,0.681818181818,0.727272727273,
    0.772727272727,0.818181818182,0.863636363636,0.909090909091,
    0.954545454545,1.),.QUASI_UNIFORM_KNOTS.);
#53 = CARTESIAN_POINT('',(0.580115928992,-3.993074776223E-03));
#54 = CARTESIAN_POINT('',(0.600594425403,-4.030399460671E-03));
#55 = CARTESIAN_POINT('',(0.640947998891,-4.128690838399E-03));
#56 = CARTESIAN_POINT('',(0.697393770039,-4.2222411256E-03));
#57 = CARTESIAN_POINT('',(0.74762835471,-4.169002718677E-03));
#58 = CARTESIAN_POINT('',(0.789008087574,-3.764385583865E-03));
#59 = CARTESIAN_POINT('',(0.821326339367,-5.156794168787E-03));
#60 = CARTESIAN_POINT('',(0.845341428176,-1.850064353573E-04));
#61 = CARTESIAN_POINT('',(0.865895731317,-1.900574901242E-02));
#62 = CARTESIAN_POINT('',(0.873749289238,5.126309640587E-02));
#63 = CARTESIAN_POINT('',(0.882024679475,0.102132559615));
#64 = CARTESIAN_POINT('',(0.887986119393,0.160854415794));
#65 = CARTESIAN_POINT('',(0.892912044196,0.218304835067));
#66 = CARTESIAN_POINT('',(0.89683059784,0.275486233694));
#67 = CARTESIAN_POINT('',(0.899978889068,0.33115768257));
#68 = CARTESIAN_POINT('',(0.902446862354,0.385063229192));
#69 = CARTESIAN_POINT('',(0.904294613827,0.436959848171));
#70 = CARTESIAN_POINT('',(0.905533121954,0.486820836104));
#71 = CARTESIAN_POINT('',(0.906135018934,0.534779033102));
#72 = CARTESIAN_POINT('',(0.906031274101,0.581177467128));
#73 = CARTESIAN_POINT('',(0.905107871084,0.626603958998));
#74 = CARTESIAN_POINT('',(0.903185179099,0.671956653263));
#75 = CARTESIAN_POINT('',(0.900019128679,0.718446023592));
#76 = CARTESIAN_POINT('',(0.896773928675,0.751396908009));
#77 = CARTESIAN_POINT('',(0.894801511011,0.768633803613));
#78 = ( GEOMETRIC_REPRESENTATION_CONTEXT(2) 
PARAMETRIC_REPRESENTATION_CONTEXT() REPRESENTATION_CONTEXT('2D SPACE',''
  ) );
#79 = PCURVE('',#80,#97);
#80 = B_SPLINE_SURFACE_WITH_KNOTS('',3,3,(
    (#81,#82,#83,#84)
    ,(#85,#86,#87,#88)
    ,(#89,#90,#91,#92)
    ,(#93,#94,#95,#96
    )),.UNSPECIFIED.,.F.,.F.,.F.,(4,4),(4,4),(0.,1.),(0.,1.),
  .PIECEWISE_BEZIER_KNOTS.);
#81 = CARTESIAN_POINT('',(-0.245895594358,0.61256223917,0.410248756409)
  );
#82 = CARTESIAN_POINT('',(-0.289291717884,0.961294711045,0.216606733898)
  );
#83 = CARTESIAN_POINT('',(-0.262360144263,1.046702898359,-0.421773541437
    ));
#84 = CARTESIAN_POINT('',(-0.222946375608,0.52125364542,-0.570219933987)
  );
#85 = CARTESIAN_POINT('',(0.456027808075,0.573621791547,0.419982195171)
  );
#86 = CARTESIAN_POINT('',(1.008786349731,1.003160277587,0.16482134548));
#87 = CARTESIAN_POINT('',(1.179787895762,1.025104695227,-0.425094497437)
  );
#88 = CARTESIAN_POINT('',(0.486322594586,0.519161011008,-0.589828274973)
  );
#89 = CARTESIAN_POINT('',(0.4785409206,-0.694618601483,0.461854923668));
#90 = CARTESIAN_POINT('',(0.985749773663,-1.129781939423,0.318755182459)
  );
#91 = CARTESIAN_POINT('',(1.056432931528,-1.284452155677,-0.38871035265)
  );
#92 = CARTESIAN_POINT('',(0.475964829251,-0.739661136131,-0.49797185479)
  );
#93 = CARTESIAN_POINT('',(-0.260299891233,-0.68431276083,0.492280066013)
  );
#94 = CARTESIAN_POINT('',(-0.302218492313,-1.080793019367,0.278379943162
    ));
#95 = CARTESIAN_POINT('',(-0.357863262028,-1.157559950841,
    -0.304111496096));
#96 = CARTESIAN_POINT('',(-0.246139734983,-0.70482057333,-0.463042259216
    ));
#97 = DEFINITIONAL_REPRESENTATION('',(#98),#124);
#98 = B_SPLINE_CURVE_WITH_KNOTS('',3,(#99,#100,#101,#102,#103,#104,#105,
    #106,#107,#108,#109,#110,#111,#112,#113,#114,#115,#116,#117,#118,
    #119,#120,#121,#122,#123),.UNSPECIFIED.,.F.,.F.,(4,1,1,1,1,1,1,1,1,1
    ,1,1,1,1,1,1,1,1,1,1,1,1,4),(0.,4.545454545455E-02,
    9.090909090909E-02,0.136363636364,0.181818181818,0.227272727273,
    0.272727272727,0.318181818182,0.363636363636,0.409090909091,
    0.454545454545,0.5,0.545454545455,0.590909090909,0.636363636364,
    0.681818181818,0.727272727273,0.772727272727,0.818181818182,
    0.863636363636,0.909090909091,0.954545454545,1.),
  .QUASI_UNIFORM_KNOTS.);
#99 = CARTESIAN_POINT('',(0.45602894186,-4.349802423447E-03));
#100 = CARTESIAN_POINT('',(0.438102184732,-4.445144823438E-03));
#101 = CARTESIAN_POINT('',(0.403223140405,-4.472898684675E-03));
#102 = CARTESIAN_POINT('',(0.354026815106,-4.242246960481E-03));
#103 = CARTESIAN_POINT('',(0.307901881764,-4.032612763883E-03));
#104 = CARTESIAN_POINT('',(0.265671373394,-3.868532036431E-03));
#105 = CARTESIAN_POINT('',(0.228377767945,-4.03316650227E-03));
#106 = CARTESIAN_POINT('',(0.196884254018,-3.25244344955E-03));
#107 = CARTESIAN_POINT('',(0.170659273521,-6.240869673525E-03));
#108 = CARTESIAN_POINT('',(0.150773009159,4.720338490901E-03));
#109 = CARTESIAN_POINT('',(0.13750516849,6.535097490405E-02));
#110 = CARTESIAN_POINT('',(0.125531784997,0.117502539005));
#111 = CARTESIAN_POINT('',(0.115686551959,0.175024354626));
#112 = CARTESIAN_POINT('',(0.10733761534,0.232557208453));
#113 = CARTESIAN_POINT('',(0.100351984433,0.290200601234));
#114 = CARTESIAN_POINT('',(9.452669076208E-02,0.346947606207));
#115 = CARTESIAN_POINT('',(8.972590605771E-02,0.402393292738));
#116 = CARTESIAN_POINT('',(8.584054525067E-02,0.456229640295));
#117 = CARTESIAN_POINT('',(8.27983655674E-02,0.50838495573));
#118 = CARTESIAN_POINT('',(8.056215062806E-02,0.559046651529));
#119 = CARTESIAN_POINT('',(7.913172481821E-02,0.60874546218));
#120 = CARTESIAN_POINT('',(7.855797019878E-02,0.658443841125));
#121 = CARTESIAN_POINT('',(7.893920394573E-02,0.709557703283));
#122 = CARTESIAN_POINT('',(8.001036375724E-02,0.745935747809));
#123 = CARTESIAN_POINT('',(8.078708090498E-02,0.76501031458));
#124 = ( GEOMETRIC_REPRESENTATION_CONTEXT(2) 
PARAMETRIC_REPRESENTATION_CONTEXT() REPRESENTATION_CONTEXT('2D SPACE',''
  ) );
#125 = ORIENTED_EDGE('',*,*,#126,.T.);
#126 = EDGE_CURVE('',#24,#127,#129,.T.);
#127 = VERTEX_POINT('',#128);
#128 = CARTESIAN_POINT('',(-8.757055911701E-04,-0.73977137357,
    -0.410310987383));
#129 = SURFACE_CURVE('',#130,(#134,#149),.PCURVE_S1.);
#130 = B_SPLINE_CURVE_WITH_KNOTS('',2,(#131,#132,#133),.UNSPECIFIED.,.F.
  ,.F.,(3,3),(0.,1.),.PIECEWISE_BEZIER_KNOTS.);
#131 = CARTESIAN_POINT('',(-1.472385978559E-03,0.779025949538,
    -0.413769345731));
#132 = CARTESIAN_POINT('',(-5.309866321961E-03,2.359120001115E-02,
    -0.741142824172));
#133 = CARTESIAN_POINT('',(-8.757055911701E-04,-0.73977137357,
    -0.410310987383));
#134 = PCURVE('',#34,#135);
#135 = DEFINITIONAL_REPRESENTATION('',(#136),#148);
#136 = B_SPLINE_CURVE_WITH_KNOTS('',10,(#137,#138,#139,#140,#141,#142,
    #143,#144,#145,#146,#147),.UNSPECIFIED.,.F.,.F.,(11,11),(0.,1.),
  .PIECEWISE_BEZIER_KNOTS.);
#137 = CARTESIAN_POINT('',(0.894801511011,0.768633803613));
#138 = CARTESIAN_POINT('',(0.876958605622,0.883981953442));
#139 = CARTESIAN_POINT('',(0.684997503669,0.851666960192));
#140 = CARTESIAN_POINT('',(1.887709844488,1.789501264638));
#141 = CARTESIAN_POINT('',(-1.663861796645,-4.334233921719E-02));
#142 = CARTESIAN_POINT('',(3.082603808486,1.585114514928));
#143 = CARTESIAN_POINT('',(-1.544194359643,1.16555203723));
#144 = CARTESIAN_POINT('',(1.504610284114,0.487202610726));
#145 = CARTESIAN_POINT('',(-0.123759995161,1.35955424917));
#146 = CARTESIAN_POINT('',(0.129248665749,0.970840887996));
#147 = CARTESIAN_POINT('',(0.109844588886,0.85082047127));
#148 = ( GEOMETRIC_REPRESENTATION_CONTEXT(2) 
PARAMETRIC_REPRESENTATION_CONTEXT() REPRESENTATION_CONTEXT('2D SPACE',''
  ) );
#149 = PCURVE('',#80,#150);
#150 = DEFINITIONAL_REPRESENTATION('',(#151),#163);
#151 = B_SPLINE_CURVE_WITH_KNOTS('',10,(#152,#153,#154,#155,#156,#157,
    #158,#159,#160,#161,#162),.UNSPECIFIED.,.F.,.F.,(11,11),(0.,1.),
  .PIECEWISE_BEZIER_KNOTS.);
#152 = CARTESIAN_POINT('',(8.078708090498E-02,0.76501031458));
#153 = CARTESIAN_POINT('',(9.457233040091E-02,0.891844806791));
#154 = CARTESIAN_POINT('',(0.312740688295,0.901897758368));
#155 = CARTESIAN_POINT('',(-1.076067431488,1.606708717157));
#156 = CARTESIAN_POINT('',(3.084023588477,0.269396448641));
#157 = CARTESIAN_POINT('',(-2.723305412113,1.28690054714));
#158 = CARTESIAN_POINT('',(2.880383869466,1.254306097807));
#159 = CARTESIAN_POINT('',(-0.513823251823,0.644830642214));
#160 = CARTESIAN_POINT('',(0.864871551676,1.143570463155));
#161 = CARTESIAN_POINT('',(0.871818320052,1.052495303644));
#162 = CARTESIAN_POINT('',(0.881442422467,0.927021850552));
#163 = ( GEOMETRIC_REPRESENTATION_CONTEXT(2) 
PARAMETRIC_REPRESENTATION_CONTEXT() REPRESENTATION_CONTEXT('2D SPACE',''
  ) );
#164 = ORIENTED_EDGE('',*,*,#165,.T.);
#165 = EDGE_CURVE('',#127,#22,#166,.T.);
#166 = SURFACE_CURVE('',#167,(#174,#203),.PCURVE_S1.);
#167 = B_SPLINE_CURVE_WITH_KNOTS('',5,(#168,#169,#170,#171,#172,#173),
  .UNSPECIFIED.,.F.,.F.,(6,6),(0.,1.),.PIECEWISE_BEZIER_KNOTS.);
#168 = CARTESIAN_POINT('',(-8.757055911701E-04,-0.73977137357,
    -0.410310987383));
#169 = CARTESIAN_POINT('',(4.848719332768E-03,-1.259354065426,
    -0.48934960744));
#170 = CARTESIAN_POINT('',(-1.978862475967E-03,-0.947219994013,
    0.366477361248));
#171 = CARTESIAN_POINT('',(1.380856629696E-02,-0.727397938496,
    0.3744509754));
#172 = CARTESIAN_POINT('',(1.18370338238E-02,-0.349934696315,
    0.639320786118));
#173 = CARTESIAN_POINT('',(1.067310286453E-02,4.835471510887E-03,
    0.49590086937));
#174 = PCURVE('',#34,#175);
#175 = DEFINITIONAL_REPRESENTATION('',(#176),#202);
#176 = B_SPLINE_CURVE_WITH_KNOTS('',3,(#177,#178,#179,#180,#181,#182,
    #183,#184,#185,#186,#187,#188,#189,#190,#191,#192,#193,#194,#195,
    #196,#197,#198,#199,#200,#201),.UNSPECIFIED.,.F.,.F.,(4,1,1,1,1,1,1,
    1,1,1,1,1,1,1,1,1,1,1,1,1,1,1,4),(0.,4.545454545455E-02,
    9.090909090909E-02,0.136363636364,0.181818181818,0.227272727273,
    0.272727272727,0.318181818182,0.363636363636,0.409090909091,
    0.454545454545,0.5,0.545454545455,0.590909090909,0.636363636364,
    0.681818181818,0.727272727273,0.772727272727,0.818181818182,
    0.863636363636,0.909090909091,0.954545454545,1.),
  .QUASI_UNIFORM_KNOTS.);
#177 = CARTESIAN_POINT('',(0.109844588886,0.85082047127));
#178 = CARTESIAN_POINT('',(0.103727728172,0.825126267024));
#179 = CARTESIAN_POINT('',(9.448929756626E-02,0.782143422107));
#180 = CARTESIAN_POINT('',(8.712437006646E-02,0.732326556001));
#181 = CARTESIAN_POINT('',(8.3161723741E-02,0.683226124582));
#182 = CARTESIAN_POINT('',(8.160141244556E-02,0.632737031193));
#183 = CARTESIAN_POINT('',(8.174107157117E-02,0.579342838926));
#184 = CARTESIAN_POINT('',(8.320915312421E-02,0.523023671774));
#185 = CARTESIAN_POINT('',(8.576093552859E-02,0.463999215256));
#186 = CARTESIAN_POINT('',(8.924677913899E-02,0.402451298526));
#187 = CARTESIAN_POINT('',(9.352668816328E-02,0.338039136558));
#188 = CARTESIAN_POINT('',(9.851400981601E-02,0.270263771752));
#189 = CARTESIAN_POINT('',(0.103603903247,0.196361459142));
#190 = CARTESIAN_POINT('',(0.10895480439,0.119371377184));
#191 = CARTESIAN_POINT('',(0.10934451997,2.347819590795E-02));
#192 = CARTESIAN_POINT('',(0.118599601725,-1.07561293504E-02));
#193 = CARTESIAN_POINT('',(0.144826017554,-1.57711197792E-03));
#194 = CARTESIAN_POINT('',(0.17915858956,-4.03899252499E-03));
#195 = CARTESIAN_POINT('',(0.230108800374,-3.384850473989E-03));
#196 = CARTESIAN_POINT('',(0.296034136779,-3.640316577525E-03));
#197 = CARTESIAN_POINT('',(0.368003417624,-3.654022174507E-03));
#198 = CARTESIAN_POINT('',(0.440009344636,-3.752076628649E-03));
#199 = CARTESIAN_POINT('',(0.510859272143,-3.856139077149E-03));
#200 = CARTESIAN_POINT('',(0.557224506854,-3.944864638143E-03));
#201 = CARTESIAN_POINT('',(0.580115928992,-3.993074776223E-03));
#202 = ( GEOMETRIC_REPRESENTATION_CONTEXT(2) 
PARAMETRIC_REPRESENTATION_CONTEXT() REPRESENTATION_CONTEXT('2D SPACE',''
  ) );
#203 = PCURVE('',#80,#204);
#204 = DEFINITIONAL_REPRESENTATION('',(#205),#217);
#205 = B_SPLINE_CURVE_WITH_KNOTS('',10,(#206,#207,#208,#209,#210,#211,
    #212,#213,#214,#215,#216),.UNSPECIFIED.,.F.,.F.,(11,11),(0.,1.),
  .PIECEWISE_BEZIER_KNOTS.);
#206 = CARTESIAN_POINT('',(0.881442422467,0.927021850552));
#207 = CARTESIAN_POINT('',(0.915675118698,0.739843920432));
#208 = CARTESIAN_POINT('',(1.011524827961,0.563253868085));
#209 = CARTESIAN_POINT('',(0.25686451275,1.58437414206));
#210 = CARTESIAN_POINT('',(2.733894817121,-1.912683732644));
#211 = CARTESIAN_POINT('',(-2.180339177696,3.257203594243));
#212 = CARTESIAN_POINT('',(4.046845329662,-2.499586662301));
#213 = CARTESIAN_POINT('',(-0.884225946707,0.948838308917));
#214 = CARTESIAN_POINT('',(1.045639027373,-0.166521703187));
#215 = CARTESIAN_POINT('',(0.556093278064,-4.220552017062E-03));
#216 = CARTESIAN_POINT('',(0.45602894186,-4.349802423447E-03));
#217 = ( GEOMETRIC_REPRESENTATION_CONTEXT(2) 
PARAMETRIC_REPRESENTATION_CONTEXT() REPRESENTATION_CONTEXT('2D SPACE',''
  ) );
#218 = ADVANCED_FACE('',(#219),#80,.T.);
#219 = FACE_BOUND('',#220,.F.);
#220 = EDGE_LOOP('',(#221,#222,#223));
#221 = ORIENTED_EDGE('',*,*,#126,.T.);
#222 = ORIENTED_EDGE('',*,*,#165,.T.);
#223 = ORIENTED_EDGE('',*,*,#21,.T.);
#224 = ( GEOMETRIC_REPRESENTATION_CONTEXT(3) 
GLOBAL_UNCERTAINTY_ASSIGNED_CONTEXT((#228)) GLOBAL_UNIT_ASSIGNED_CONTEXT
((#225,#226,#227)) REPRESENTATION_CONTEXT('Context #1',
  '3D Context with UNIT and UNCERTAINTY') );
#225 = ( LENGTH_UNIT() NAMED_UNIT(*) SI_UNIT(.MILLI.,.METRE.) );
#226 = ( NAMED_UNIT(*) PLANE_ANGLE_UNIT() SI_UNIT($,.RADIAN.) );
#227 = ( NAMED_UNIT(*) SI_UNIT($,.STERADIAN.) SOLID_ANGLE_UNIT() );
#228 = UNCERTAINTY_MEASURE_WITH_UNIT(LENGTH_MEASURE(0.2),#225,
  'distance_accuracy_value','confusion accuracy');
#229 = PRODUCT_RELATED_PRODUCT_CATEGORY('detail',$,(#7));
#230 = PRODUCT_CATEGORY_RELATIONSHIP('','',#231,#229);
#231 = PRODUCT_CATEGORY('part',$);
#232 = CC_DESIGN_PERSON_AND_ORGANIZATION_ASSIGNMENT(#233,#236,(#6,#5));
#233 = PERSON_AND_ORGANIZATION(#234,#235);
#234 = PERSON('IP127.0.1,workstation-5','','workstation-5,,,',$,$,$);
#235 = ORGANIZATION('IP127.0.1','Unspecified','');
#236 = PERSON_AND_ORGANIZATION_ROLE('creator');
#237 = CC_DESIGN_PERSON_AND_ORGANIZATION_ASSIGNMENT(#233,#238,(#7));
#238 = PERSON_AND_ORGANIZATION_ROLE('design_owner');
#239 = CC_DESIGN_PERSON_AND_ORGANIZATION_ASSIGNMENT(#233,#240,(#6));
#240 = PERSON_AND_ORGANIZATION_ROLE('design_supplier');
#241 = CC_DESIGN_PERSON_AND_ORGANIZATION_ASSIGNMENT(#233,#242,(#243));
#242 = PERSON_AND_ORGANIZATION_ROLE('classification_officer');
#243 = SECURITY_CLASSIFICATION('','',#244);
#244 = SECURITY_CLASSIFICATION_LEVEL('unclassified');
#245 = CC_DESIGN_SECURITY_CLASSIFICATION(#243,(#6));
#246 = CC_DESIGN_DATE_AND_TIME_ASSIGNMENT(#247,#251,(#5));
#247 = DATE_AND_TIME(#248,#249);
#248 = CALENDAR_DATE(2024,3,12);
#249 = LOCAL_TIME(16,7,$,#250);
#250 = COORDINATED_UNIVERSAL_TIME_OFFSET(5,$,.BEHIND.);
#251 = DATE_TIME_ROLE('creation_date');
#252 = CC_DESIGN_DATE_AND_TIME_ASSIGNMENT(#247,#253,(#243));
#253 = DATE_TIME_ROLE('classification_date');
#254 = CC_DESIGN_APPROVAL(#255,(#6,#5,#243));
#255 = APPROVAL(#256,'');
#256 = APPROVAL_STATUS('not_yet_approved');
#257 = APPROVAL_PERSON_ORGANIZATION(#233,#255,#258);
#258 = APPROVAL_ROLE('approver');
#259 = APPROVAL_DATE_TIME(#247,#255);
ENDSEC;
END-ISO-10303-21;
