ISO-10303-21;
HEADER;
FILE_DESCRIPTION(('Open CASCADE Model'),'2;1');
FILE_NAME('Open CASCADE Shape Model','2024-07-31T07:43:11',('Author'),(
    'Open CASCADE'),'Open CASCADE STEP processor 7.5','Open CASCADE 7.5'
  ,'Unknown');
FILE_SCHEMA(('CONFIG_CONTROL_DESIGN'));
ENDSEC;
DATA;
#1 = APPLICATION_PROTOCOL_DEFINITION('international standard',
  'config_control_design',1994,#2);
#2 = APPLICATION_CONTEXT(
'configuration controlled 3D designs of mechanical parts and assemblies'
  );
#3 = SHAPE_DEFINITION_REPRESENTATION(#4,#10);
#4 = PRODUCT_DEFINITION_SHAPE('','',#5);
#5 = PRODUCT_DEFINITION('design','',#6,#9);
#6 = PRODUCT_DEFINITION_FORMATION_WITH_SPECIFIED_SOURCE('','',#7,
  .NOT_KNOWN.);
#7 = PRODUCT('Open CASCADE STEP translator 7.5 3138',
  'Open CASCADE STEP translator 7.5 3138','',(#8));
#8 = MECHANICAL_CONTEXT('',#2,'mechanical');
#9 = DESIGN_CONTEXT('',#2,'design');
#10 = ADVANCED_BREP_SHAPE_REPRESENTATION('',(#11,#15),#264);
#11 = AXIS2_PLACEMENT_3D('',#12,#13,#14);
#12 = CARTESIAN_POINT('',(0.,0.,0.));
#13 = DIRECTION('',(0.,0.,1.));
#14 = DIRECTION('',(1.,0.,-0.));
#15 = MANIFOLD_SOLID_BREP('',#16);
#16 = CLOSED_SHELL('',(#17,#128,#225,#257));
#17 = ADVANCED_FACE('',(#18),#33,.T.);
#18 = FACE_BOUND('',#19,.T.);
#19 = EDGE_LOOP('',(#20,#83));
#20 = ORIENTED_EDGE('',*,*,#21,.T.);
#21 = EDGE_CURVE('',#22,#24,#26,.T.);
#22 = VERTEX_POINT('',#23);
#23 = CARTESIAN_POINT('',(-1.169830599489E-03,0.995666091641,
    0.225993021081));
#24 = VERTEX_POINT('',#25);
#25 = CARTESIAN_POINT('',(-2.779860359927E-03,0.996799871325,
    -0.220985622456));
#26 = SURFACE_CURVE('',#27,(#32,#57),.PCURVE_S1.);
#27 = B_SPLINE_CURVE_WITH_KNOTS('',3,(#28,#29,#30,#31),.UNSPECIFIED.,.F.
  ,.F.,(4,4),(0.,1.),.PIECEWISE_BEZIER_KNOTS.);
#28 = CARTESIAN_POINT('',(-1.169830599489E-03,0.995666091641,
    0.225993021081));
#29 = CARTESIAN_POINT('',(0.288951539157,0.998316902053,0.230835350205)
  );
#30 = CARTESIAN_POINT('',(0.288669482998,0.996169622337,-0.22926249713)
  );
#31 = CARTESIAN_POINT('',(-2.779860359927E-03,0.996799871325,
    -0.220985622456));
#32 = PCURVE('',#33,#50);
#33 = B_SPLINE_SURFACE_WITH_KNOTS('',3,3,(
    (#34,#35,#36,#37)
    ,(#38,#39,#40,#41)
    ,(#42,#43,#44,#45)
    ,(#46,#47,#48,#49
    )),.UNSPECIFIED.,.F.,.F.,.F.,(4,4),(4,4),(0.,1.),(0.,1.),
  .PIECEWISE_BEZIER_KNOTS.);
#34 = CARTESIAN_POINT('',(0.236655861139,0.997747898102,-0.230624854565)
  );
#35 = CARTESIAN_POINT('',(0.237568520507,0.996211847102,
    -7.541695711687E-02));
#36 = CARTESIAN_POINT('',(0.23729715186,0.997330831014,
    7.966571914412E-02));
#37 = CARTESIAN_POINT('',(0.238120704889,0.994915008545,0.23495131731));
#38 = CARTESIAN_POINT('',(8.070960236344E-02,0.996289774035,
    -0.229288887601));
#39 = CARTESIAN_POINT('',(7.857364703802E-02,0.999879253552,
    -7.397263091019E-02));
#40 = CARTESIAN_POINT('',(8.174082585281E-02,0.991910127085,
    7.992190068748E-02));
#41 = CARTESIAN_POINT('',(8.03719304413E-02,0.997082587685,
    0.233835071138));
#42 = CARTESIAN_POINT('',(-7.979331493212E-02,0.998502113396,
    -0.229705136069));
#43 = CARTESIAN_POINT('',(-7.378471520931E-02,0.9927227367,
    -7.630564934106E-02));
#44 = CARTESIAN_POINT('',(-7.77344498867E-02,1.000912669759,
    7.891341002711E-02));
#45 = CARTESIAN_POINT('',(-7.838926111072E-02,0.994921522033,
    0.234609885413));
#46 = CARTESIAN_POINT('',(-0.233436912298,0.997106790543,-0.230991065502
    ));
#47 = CARTESIAN_POINT('',(-0.236162028517,0.997963298684,
    -7.510774497997E-02));
#48 = CARTESIAN_POINT('',(-0.23402459215,0.995132823782,
    7.954184433144E-02));
#49 = CARTESIAN_POINT('',(-0.234169334173,0.99547958374,0.234096825123)
  );
#50 = DEFINITIONAL_REPRESENTATION('',(#51),#56);
#51 = B_SPLINE_CURVE_WITH_KNOTS('',3,(#52,#53,#54,#55),.UNSPECIFIED.,.F.
  ,.F.,(4,4),(0.,1.),.PIECEWISE_BEZIER_KNOTS.);
#52 = CARTESIAN_POINT('',(0.50516229929,0.982122875464));
#53 = CARTESIAN_POINT('',(-0.107949722483,0.992438788539));
#54 = CARTESIAN_POINT('',(-0.109086559471,2.873178070444E-04));
#55 = CARTESIAN_POINT('',(0.507601468876,1.906937163897E-02));
#56 = ( GEOMETRIC_REPRESENTATION_CONTEXT(2) 
PARAMETRIC_REPRESENTATION_CONTEXT() REPRESENTATION_CONTEXT('2D SPACE',''
  ) );
#57 = PCURVE('',#58,#75);
#58 = B_SPLINE_SURFACE_WITH_KNOTS('',3,3,(
    (#59,#60,#61,#62)
    ,(#63,#64,#65,#66)
    ,(#67,#68,#69,#70)
    ,(#71,#72,#73,#74
    )),.UNSPECIFIED.,.F.,.F.,.F.,(4,4),(4,4),(0.,1.),(0.,1.),
  .PIECEWISE_BEZIER_KNOTS.);
#59 = CARTESIAN_POINT('',(-3.433854132891E-02,1.039408326149,
    -0.24350976944));
#60 = CARTESIAN_POINT('',(-2.066846005904E-02,0.349714436971,
    -0.237674958365));
#61 = CARTESIAN_POINT('',(-2.503533520354E-02,-0.34670569588,
    -0.251486253293));
#62 = CARTESIAN_POINT('',(-2.573258429766E-02,-1.050435423851,
    -0.252542972565));
#63 = CARTESIAN_POINT('',(0.278285666667,1.050547080269,-0.228503384577)
  );
#64 = CARTESIAN_POINT('',(0.269438486592,0.333984854301,-0.250921124399)
  );
#65 = CARTESIAN_POINT('',(0.282135300951,-0.362992842813,-0.219913790073
    ));
#66 = CARTESIAN_POINT('',(0.279412941222,-1.041559363638,-0.2432075489)
  );
#67 = CARTESIAN_POINT('',(0.295380600735,1.041443851767,0.25157251424));
#68 = CARTESIAN_POINT('',(0.284414630319,0.366319660739,0.261999401754)
  );
#69 = CARTESIAN_POINT('',(0.284475565677,-0.349652904562,0.241191767141)
  );
#70 = CARTESIAN_POINT('',(0.297355516393,-1.05655715181,0.245812087598)
  );
#71 = CARTESIAN_POINT('',(-2.713639289141E-02,1.051127076149,
    0.25844335556));
#72 = CARTESIAN_POINT('',(-1.549707152053E-02,0.343593357228,
    0.24275531017));
#73 = CARTESIAN_POINT('',(-2.288853296757E-02,-0.3392298291,
    0.252995505454));
#74 = CARTESIAN_POINT('',(-2.805192023516E-02,-1.037740111351,
    0.247579097748));
#75 = DEFINITIONAL_REPRESENTATION('',(#76),#82);
#76 = B_SPLINE_CURVE_WITH_KNOTS('',4,(#77,#78,#79,#80,#81),
  .UNSPECIFIED.,.F.,.F.,(5,5),(0.,1.),.PIECEWISE_BEZIER_KNOTS.);
#77 = CARTESIAN_POINT('',(0.969580766296,2.608189082312E-02));
#78 = CARTESIAN_POINT('',(0.729370322532,2.241583626796E-02));
#79 = CARTESIAN_POINT('',(0.454393428111,2.344104875132E-02));
#80 = CARTESIAN_POINT('',(0.286232164306,2.397351387924E-02));
#81 = CARTESIAN_POINT('',(3.750556280488E-02,2.10806514601E-02));
#82 = ( GEOMETRIC_REPRESENTATION_CONTEXT(2) 
PARAMETRIC_REPRESENTATION_CONTEXT() REPRESENTATION_CONTEXT('2D SPACE',''
  ) );
#83 = ORIENTED_EDGE('',*,*,#84,.T.);
#84 = EDGE_CURVE('',#24,#22,#85,.T.);
#85 = SURFACE_CURVE('',#86,(#91,#102),.PCURVE_S1.);
#86 = B_SPLINE_CURVE_WITH_KNOTS('',3,(#87,#88,#89,#90),.UNSPECIFIED.,.F.
  ,.F.,(4,4),(0.,1.),.PIECEWISE_BEZIER_KNOTS.);
#87 = CARTESIAN_POINT('',(-2.779860359927E-03,0.996799871325,
    -0.220985622456));
#88 = CARTESIAN_POINT('',(-0.290966998879,0.99708226872,-0.223727943166)
  );
#89 = CARTESIAN_POINT('',(-0.29073227633,0.995313155143,0.231712664454)
  );
#90 = CARTESIAN_POINT('',(-1.169830599489E-03,0.995666091641,
    0.225993021081));
#91 = PCURVE('',#33,#92);
#92 = DEFINITIONAL_REPRESENTATION('',(#93),#101);
#93 = B_SPLINE_CURVE_WITH_KNOTS('',6,(#94,#95,#96,#97,#98,#99,#100),
  .UNSPECIFIED.,.F.,.F.,(7,7),(0.,1.),.PIECEWISE_BEZIER_KNOTS.);
#94 = CARTESIAN_POINT('',(0.507601468876,1.906937163897E-02));
#95 = CARTESIAN_POINT('',(0.812403956772,1.656934047257E-02));
#96 = CARTESIAN_POINT('',(1.001655088616,0.214402922355));
#97 = CARTESIAN_POINT('',(1.052401558445,0.501048474704));
#98 = CARTESIAN_POINT('',(1.000258396074,0.797159974714));
#99 = CARTESIAN_POINT('',(0.811068535314,0.988324204722));
#100 = CARTESIAN_POINT('',(0.50516229929,0.982122875464));
#101 = ( GEOMETRIC_REPRESENTATION_CONTEXT(2) 
PARAMETRIC_REPRESENTATION_CONTEXT() REPRESENTATION_CONTEXT('2D SPACE',''
  ) );
#102 = PCURVE('',#103,#120);
#103 = B_SPLINE_SURFACE_WITH_KNOTS('',3,3,(
    (#104,#105,#106,#107)
    ,(#108,#109,#110,#111)
    ,(#112,#113,#114,#115)
    ,(#116,#117,#118,#119
    )),.UNSPECIFIED.,.F.,.F.,.F.,(4,4),(4,4),(0.,1.),(0.,1.),
  .PIECEWISE_BEZIER_KNOTS.);
#104 = CARTESIAN_POINT('',(2.30777002871E-02,1.05549967289,
    0.254436612129));
#105 = CARTESIAN_POINT('',(1.602150162473E-02,0.350640695497,
    0.250607809279));
#106 = CARTESIAN_POINT('',(1.934245774048E-02,-0.350671340125,
    0.249646445726));
#107 = CARTESIAN_POINT('',(3.351471200585E-02,-1.04996907711,
    0.247356534004));
#108 = CARTESIAN_POINT('',(-0.302139908437,1.045416592036,0.248352024178
    ));
#109 = CARTESIAN_POINT('',(-0.284956938051,0.350599426581,0.236409040939
    ));
#110 = CARTESIAN_POINT('',(-0.299207930921,-0.350865590312,
    0.242252927589));
#111 = CARTESIAN_POINT('',(-0.29797065894,-1.061733868661,0.232624474302
    ));
#112 = CARTESIAN_POINT('',(-0.280178259865,1.052879632179,
    -0.236202979573));
#113 = CARTESIAN_POINT('',(-0.294512747421,0.342743665576,
    -0.237323424665));
#114 = CARTESIAN_POINT('',(-0.276217459323,-0.361587061081,
    -0.244617573661));
#115 = CARTESIAN_POINT('',(-0.28669253991,-1.052807804781,
    -0.237114347236));
#116 = CARTESIAN_POINT('',(2.594635263085E-02,1.04573404789,
    -0.240314364433));
#117 = CARTESIAN_POINT('',(3.003619524708E-02,0.348285239754,
    -0.245573421356));
#118 = CARTESIAN_POINT('',(1.919827987335E-02,-0.353598013121,
    -0.237003086798));
#119 = CARTESIAN_POINT('',(3.986236825585E-02,-1.05875813961,
    -0.254840731621));
#120 = DEFINITIONAL_REPRESENTATION('',(#121),#127);
#121 = B_SPLINE_CURVE_WITH_KNOTS('',4,(#122,#123,#124,#125,#126),
  .UNSPECIFIED.,.F.,.F.,(5,5),(0.,1.),.PIECEWISE_BEZIER_KNOTS.);
#122 = CARTESIAN_POINT('',(0.964979148933,2.362749148809E-02));
#123 = CARTESIAN_POINT('',(0.71609136059,2.479256071901E-02));
#124 = CARTESIAN_POINT('',(0.522715643321,2.569777225912E-02));
#125 = CARTESIAN_POINT('',(0.264988620725,2.690421885098E-02));
#126 = CARTESIAN_POINT('',(2.820195192088E-02,2.801264150182E-02));
#127 = ( GEOMETRIC_REPRESENTATION_CONTEXT(2) 
PARAMETRIC_REPRESENTATION_CONTEXT() REPRESENTATION_CONTEXT('2D SPACE',''
  ) );
#128 = ADVANCED_FACE('',(#129),#103,.T.);
#129 = FACE_BOUND('',#130,.F.);
#130 = EDGE_LOOP('',(#131,#132,#157,#202));
#131 = ORIENTED_EDGE('',*,*,#84,.T.);
#132 = ORIENTED_EDGE('',*,*,#133,.T.);
#133 = EDGE_CURVE('',#22,#134,#136,.T.);
#134 = VERTEX_POINT('',#135);
#135 = CARTESIAN_POINT('',(8.804685979461E-04,-1.000714356701,
    0.224564594527));
#136 = SURFACE_CURVE('',#137,(#141,#149),.PCURVE_S1.);
#137 = B_SPLINE_CURVE_WITH_KNOTS('',2,(#138,#139,#140),.UNSPECIFIED.,.F.
  ,.F.,(3,3),(0.,1.),.PIECEWISE_BEZIER_KNOTS.);
#138 = CARTESIAN_POINT('',(-1.169830599489E-03,0.995666091641,
    0.225993021081));
#139 = CARTESIAN_POINT('',(3.725453997219E-03,-2.62242110931E-03,
    0.23000253788));
#140 = CARTESIAN_POINT('',(8.804685979461E-04,-1.000714356701,
    0.224564594527));
#141 = PCURVE('',#103,#142);
#142 = DEFINITIONAL_REPRESENTATION('',(#143),#148);
#143 = B_SPLINE_CURVE_WITH_KNOTS('',3,(#144,#145,#146,#147),
  .UNSPECIFIED.,.F.,.F.,(4,4),(0.,1.),.PIECEWISE_BEZIER_KNOTS.);
#144 = CARTESIAN_POINT('',(2.820195192088E-02,2.801264150182E-02));
#145 = CARTESIAN_POINT('',(3.087612142651E-02,0.343117138051));
#146 = CARTESIAN_POINT('',(3.356096948494E-02,0.659479916843));
#147 = CARTESIAN_POINT('',(3.624760087418E-02,0.976052830241));
#148 = ( GEOMETRIC_REPRESENTATION_CONTEXT(2) 
PARAMETRIC_REPRESENTATION_CONTEXT() REPRESENTATION_CONTEXT('2D SPACE',''
  ) );
#149 = PCURVE('',#58,#150);
#150 = DEFINITIONAL_REPRESENTATION('',(#151),#156);
#151 = B_SPLINE_CURVE_WITH_KNOTS('',3,(#152,#153,#154,#155),
  .UNSPECIFIED.,.F.,.F.,(4,4),(0.,1.),.PIECEWISE_BEZIER_KNOTS.);
#152 = CARTESIAN_POINT('',(0.969580766296,2.608189082312E-02));
#153 = CARTESIAN_POINT('',(0.968727952493,0.341205317985));
#154 = CARTESIAN_POINT('',(0.967853914252,0.664171392461));
#155 = CARTESIAN_POINT('',(0.966994936525,0.981572452809));
#156 = ( GEOMETRIC_REPRESENTATION_CONTEXT(2) 
PARAMETRIC_REPRESENTATION_CONTEXT() REPRESENTATION_CONTEXT('2D SPACE',''
  ) );
#157 = ORIENTED_EDGE('',*,*,#158,.T.);
#158 = EDGE_CURVE('',#134,#159,#161,.T.);
#159 = VERTEX_POINT('',#160);
#160 = CARTESIAN_POINT('',(-6.97613072892E-04,-0.999497686823,
    -0.218320878843));
#161 = SURFACE_CURVE('',#162,(#167,#177),.PCURVE_S1.);
#162 = B_SPLINE_CURVE_WITH_KNOTS('',3,(#163,#164,#165,#166),
  .UNSPECIFIED.,.F.,.F.,(4,4),(0.,1.),.PIECEWISE_BEZIER_KNOTS.);
#163 = CARTESIAN_POINT('',(8.804685979461E-04,-1.000714356701,
    0.224564594527));
#164 = CARTESIAN_POINT('',(-0.290090198839,-0.998048262753,
    0.207499070004));
#165 = CARTESIAN_POINT('',(-0.296746163311,-1.000827658106,
    -0.204272474706));
#166 = CARTESIAN_POINT('',(-6.97613072892E-04,-0.999497686823,
    -0.218320878843));
#167 = PCURVE('',#103,#168);
#168 = DEFINITIONAL_REPRESENTATION('',(#169),#176);
#169 = B_SPLINE_CURVE_WITH_KNOTS('',5,(#170,#171,#172,#173,#174,#175),
  .UNSPECIFIED.,.F.,.F.,(6,6),(0.,1.),.PIECEWISE_BEZIER_KNOTS.);
#170 = CARTESIAN_POINT('',(3.624760087418E-02,0.976052830241));
#171 = CARTESIAN_POINT('',(0.224651036451,0.972808317396));
#172 = CARTESIAN_POINT('',(0.459265830821,0.972075695643));
#173 = CARTESIAN_POINT('',(0.531479849389,0.972975965431));
#174 = CARTESIAN_POINT('',(0.753742893053,0.974009629427));
#175 = CARTESIAN_POINT('',(0.951767251169,0.972067933208));
#176 = ( GEOMETRIC_REPRESENTATION_CONTEXT(2) 
PARAMETRIC_REPRESENTATION_CONTEXT() REPRESENTATION_CONTEXT('2D SPACE',''
  ) );
#177 = PCURVE('',#178,#195);
#178 = B_SPLINE_SURFACE_WITH_KNOTS('',3,3,(
    (#179,#180,#181,#182)
    ,(#183,#184,#185,#186)
    ,(#187,#188,#189,#190)
    ,(#191,#192,#193,#194
    )),.UNSPECIFIED.,.F.,.F.,.F.,(4,4),(4,4),(0.,1.),(0.,1.),
  .PIECEWISE_BEZIER_KNOTS.);
#179 = CARTESIAN_POINT('',(-0.217209324241,-1.000176668167,
    -0.222873792052));
#180 = CARTESIAN_POINT('',(-0.217091932373,-1.001112480398,
    -7.388053863461E-02));
#181 = CARTESIAN_POINT('',(-0.216309873957,-1.000225714645,
    7.649021284243E-02));
#182 = CARTESIAN_POINT('',(-0.216110691428,-1.00124335289,0.225612536073
    ));
#183 = CARTESIAN_POINT('',(-6.755048728264E-02,-0.997835042437,
    -0.222017758468));
#184 = CARTESIAN_POINT('',(-6.627266591057E-02,-1.000629653,
    -7.072728651949E-02));
#185 = CARTESIAN_POINT('',(-6.451784609305E-02,-0.997946592986,
    7.399958543459E-02));
#186 = CARTESIAN_POINT('',(-6.623289125997E-02,-1.000310086457,
    0.22539306058));
#187 = CARTESIAN_POINT('',(8.399055484827E-02,-0.99918792384,
    -0.220379107017));
#188 = CARTESIAN_POINT('',(8.570649818302E-02,-0.998907281553,
    -7.41954361426E-02));
#189 = CARTESIAN_POINT('',(8.454590967725E-02,-1.000270625865,
    7.702093662673E-02));
#190 = CARTESIAN_POINT('',(8.604117248232E-02,-0.999218771997,
    0.223734729179));
#191 = CARTESIAN_POINT('',(0.235061183572,-1.000024080276,
    -0.221531018615));
#192 = CARTESIAN_POINT('',(0.234007598042,-0.999237226987,
    -7.181495300017E-02));
#193 = CARTESIAN_POINT('',(0.23674196366,-1.000176226384,
    7.752687356885E-02));
#194 = CARTESIAN_POINT('',(0.235671535134,-1.000301122665,0.226344957948
    ));
#195 = DEFINITIONAL_REPRESENTATION('',(#196),#201);
#196 = B_SPLINE_CURVE_WITH_KNOTS('',3,(#197,#198,#199,#200),
  .UNSPECIFIED.,.F.,.F.,(4,4),(0.,1.),.PIECEWISE_BEZIER_KNOTS.);
#197 = CARTESIAN_POINT('',(0.480144059975,0.999183328096));
#198 = CARTESIAN_POINT('',(-0.16217964149,0.959656782853));
#199 = CARTESIAN_POINT('',(-0.1742317047,4.205489086908E-02));
#200 = CARTESIAN_POINT('',(0.479870540593,7.113373596492E-03));
#201 = ( GEOMETRIC_REPRESENTATION_CONTEXT(2) 
PARAMETRIC_REPRESENTATION_CONTEXT() REPRESENTATION_CONTEXT('2D SPACE',''
  ) );
#202 = ORIENTED_EDGE('',*,*,#203,.T.);
#203 = EDGE_CURVE('',#159,#24,#204,.T.);
#204 = SURFACE_CURVE('',#205,(#209,#217),.PCURVE_S1.);
#205 = B_SPLINE_CURVE_WITH_KNOTS('',2,(#206,#207,#208),.UNSPECIFIED.,.F.
  ,.F.,(3,3),(0.,1.),.PIECEWISE_BEZIER_KNOTS.);
#206 = CARTESIAN_POINT('',(-6.97613072892E-04,-0.999497686823,
    -0.218320878843));
#207 = CARTESIAN_POINT('',(-1.369359469131E-04,-1.216094167578E-03,
    -0.221237781004));
#208 = CARTESIAN_POINT('',(-2.779860359927E-03,0.996799871325,
    -0.220985622456));
#209 = PCURVE('',#103,#210);
#210 = DEFINITIONAL_REPRESENTATION('',(#211),#216);
#211 = B_SPLINE_CURVE_WITH_KNOTS('',3,(#212,#213,#214,#215),
  .UNSPECIFIED.,.F.,.F.,(4,4),(0.,1.),.PIECEWISE_BEZIER_KNOTS.);
#212 = CARTESIAN_POINT('',(0.951767251169,0.972067933208));
#213 = CARTESIAN_POINT('',(0.956160282629,0.656706069749));
#214 = CARTESIAN_POINT('',(0.960557944374,0.34101181276));
#215 = CARTESIAN_POINT('',(0.964979148933,2.362749148809E-02));
#216 = ( GEOMETRIC_REPRESENTATION_CONTEXT(2) 
PARAMETRIC_REPRESENTATION_CONTEXT() REPRESENTATION_CONTEXT('2D SPACE',''
  ) );
#217 = PCURVE('',#58,#218);
#218 = DEFINITIONAL_REPRESENTATION('',(#219),#224);
#219 = B_SPLINE_CURVE_WITH_KNOTS('',3,(#220,#221,#222,#223),
  .UNSPECIFIED.,.F.,.F.,(4,4),(0.,1.),.PIECEWISE_BEZIER_KNOTS.);
#220 = CARTESIAN_POINT('',(3.331221132589E-02,0.976102787519));
#221 = CARTESIAN_POINT('',(3.470136636849E-02,0.65972725288));
#222 = CARTESIAN_POINT('',(3.609977242462E-02,0.341244830051));
#223 = CARTESIAN_POINT('',(3.750556280488E-02,2.10806514601E-02));
#224 = ( GEOMETRIC_REPRESENTATION_CONTEXT(2) 
PARAMETRIC_REPRESENTATION_CONTEXT() REPRESENTATION_CONTEXT('2D SPACE',''
  ) );
#225 = ADVANCED_FACE('',(#226),#178,.T.);
#226 = FACE_BOUND('',#227,.T.);
#227 = EDGE_LOOP('',(#228,#229));
#228 = ORIENTED_EDGE('',*,*,#158,.T.);
#229 = ORIENTED_EDGE('',*,*,#230,.T.);
#230 = EDGE_CURVE('',#159,#134,#231,.T.);
#231 = SURFACE_CURVE('',#232,(#237,#247),.PCURVE_S1.);
#232 = B_SPLINE_CURVE_WITH_KNOTS('',3,(#233,#234,#235,#236),
  .UNSPECIFIED.,.F.,.F.,(4,4),(0.,1.),.PIECEWISE_BEZIER_KNOTS.);
#233 = CARTESIAN_POINT('',(-6.97613072892E-04,-0.999497686823,
    -0.218320878843));
#234 = CARTESIAN_POINT('',(0.28711779296,-0.999643057786,-0.223515189095
    ));
#235 = CARTESIAN_POINT('',(0.2894194664,-1.000451155544,0.228817119855)
  );
#236 = CARTESIAN_POINT('',(8.804685979461E-04,-1.000714356701,
    0.224564594527));
#237 = PCURVE('',#178,#238);
#238 = DEFINITIONAL_REPRESENTATION('',(#239),#246);
#239 = B_SPLINE_CURVE_WITH_KNOTS('',5,(#240,#241,#242,#243,#244,#245),
  .UNSPECIFIED.,.F.,.F.,(6,6),(0.,1.),.PIECEWISE_BEZIER_KNOTS.);
#240 = CARTESIAN_POINT('',(0.479870540593,7.113373596492E-03));
#241 = CARTESIAN_POINT('',(0.861340387663,-1.8978672263E-03));
#242 = CARTESIAN_POINT('',(1.052943011964,0.303028601733));
#243 = CARTESIAN_POINT('',(1.052898882629,0.696204546044));
#244 = CARTESIAN_POINT('',(0.862281134177,1.00568129884));
#245 = CARTESIAN_POINT('',(0.480144059975,0.999183328096));
#246 = ( GEOMETRIC_REPRESENTATION_CONTEXT(2) 
PARAMETRIC_REPRESENTATION_CONTEXT() REPRESENTATION_CONTEXT('2D SPACE',''
  ) );
#247 = PCURVE('',#58,#248);
#248 = DEFINITIONAL_REPRESENTATION('',(#249),#256);
#249 = B_SPLINE_CURVE_WITH_KNOTS('',5,(#250,#251,#252,#253,#254,#255),
  .UNSPECIFIED.,.F.,.F.,(6,6),(0.,1.),.PIECEWISE_BEZIER_KNOTS.);
#250 = CARTESIAN_POINT('',(3.331221132589E-02,0.976102787519));
#251 = CARTESIAN_POINT('',(0.23254600654,0.977660781719));
#252 = CARTESIAN_POINT('',(0.454467806403,0.977488325252));
#253 = CARTESIAN_POINT('',(0.551421707696,0.976167263263));
#254 = CARTESIAN_POINT('',(0.777044706646,0.976969992905));
#255 = CARTESIAN_POINT('',(0.966994936525,0.981572452809));
#256 = ( GEOMETRIC_REPRESENTATION_CONTEXT(2) 
PARAMETRIC_REPRESENTATION_CONTEXT() REPRESENTATION_CONTEXT('2D SPACE',''
  ) );
#257 = ADVANCED_FACE('',(#258),#58,.T.);
#258 = FACE_BOUND('',#259,.T.);
#259 = EDGE_LOOP('',(#260,#261,#262,#263));
#260 = ORIENTED_EDGE('',*,*,#133,.T.);
#261 = ORIENTED_EDGE('',*,*,#230,.F.);
#262 = ORIENTED_EDGE('',*,*,#203,.T.);
#263 = ORIENTED_EDGE('',*,*,#21,.F.);
#264 = ( GEOMETRIC_REPRESENTATION_CONTEXT(3) 
GLOBAL_UNCERTAINTY_ASSIGNED_CONTEXT((#268)) GLOBAL_UNIT_ASSIGNED_CONTEXT
((#265,#266,#267)) REPRESENTATION_CONTEXT('Context #1',
  '3D Context with UNIT and UNCERTAINTY') );
#265 = ( LENGTH_UNIT() NAMED_UNIT(*) SI_UNIT(.MILLI.,.METRE.) );
#266 = ( NAMED_UNIT(*) PLANE_ANGLE_UNIT() SI_UNIT($,.RADIAN.) );
#267 = ( NAMED_UNIT(*) SI_UNIT($,.STERADIAN.) SOLID_ANGLE_UNIT() );
#268 = UNCERTAINTY_MEASURE_WITH_UNIT(LENGTH_MEASURE(2.E-02),#265,
  'distance_accuracy_value','confusion accuracy');
#269 = PRODUCT_RELATED_PRODUCT_CATEGORY('detail',$,(#7));
#270 = PRODUCT_CATEGORY_RELATIONSHIP('','',#271,#269);
#271 = PRODUCT_CATEGORY('part',$);
#272 = CC_DESIGN_PERSON_AND_ORGANIZATION_ASSIGNMENT(#273,#276,(#6,#5));
#273 = PERSON_AND_ORGANIZATION(#274,#275);
#274 = PERSON('IP127.0.1,workstation-5','','workstation-5,,,',$,$,$);
#275 = ORGANIZATION('IP127.0.1','Unspecified','');
#276 = PERSON_AND_ORGANIZATION_ROLE('creator');
#277 = CC_DESIGN_PERSON_AND_ORGANIZATION_ASSIGNMENT(#273,#278,(#7));
#278 = PERSON_AND_ORGANIZATION_ROLE('design_owner');
#279 = CC_DESIGN_PERSON_AND_ORGANIZATION_ASSIGNMENT(#273,#280,(#6));
#280 = PERSON_AND_ORGANIZATION_ROLE('design_supplier');
#281 = CC_DESIGN_PERSON_AND_ORGANIZATION_ASSIGNMENT(#273,#282,(#283));
#282 = PERSON_AND_ORGANIZATION_ROLE('classification_officer');
#283 = SECURITY_CLASSIFICATION('','',#284);
#284 = SECURITY_CLASSIFICATION_LEVEL('unclassified');
#285 = CC_DESIGN_SECURITY_CLASSIFICATION(#283,(#6));
#286 = CC_DESIGN_DATE_AND_TIME_ASSIGNMENT(#287,#291,(#5));
#287 = DATE_AND_TIME(#288,#289);
#288 = CALENDAR_DATE(2024,30,7);
#289 = LOCAL_TIME(15,5,$,#290);
#290 = COORDINATED_UNIVERSAL_TIME_OFFSET(5,$,.BEHIND.);
#291 = DATE_TIME_ROLE('creation_date');
#292 = CC_DESIGN_DATE_AND_TIME_ASSIGNMENT(#287,#293,(#283));
#293 = DATE_TIME_ROLE('classification_date');
#294 = CC_DESIGN_APPROVAL(#295,(#6,#5,#283));
#295 = APPROVAL(#296,'');
#296 = APPROVAL_STATUS('not_yet_approved');
#297 = APPROVAL_PERSON_ORGANIZATION(#273,#295,#298);
#298 = APPROVAL_ROLE('approver');
#299 = APPROVAL_DATE_TIME(#287,#295);
ENDSEC;
END-ISO-10303-21;
