ISO-10303-21;
HEADER;
FILE_DESCRIPTION(('Open CASCADE Model'),'2;1');
FILE_NAME('Open CASCADE Shape Model','2024-07-28T09:27:44',('Author'),(
    'Open CASCADE'),'Open CASCADE STEP processor 7.5','Open CASCADE 7.5'
  ,'Unknown');
FILE_SCHEMA(('CONFIG_CONTROL_DESIGN'));
ENDSEC;
DATA;
#1 = APPLICATION_PROTOCOL_DEFINITION('international standard',
  'config_control_design',1994,#2);
#2 = APPLICATION_CONTEXT(
'configuration controlled 3D designs of mechanical parts and assemblies'
  );
#3 = SHAPE_DEFINITION_REPRESENTATION(#4,#10);
#4 = PRODUCT_DEFINITION_SHAPE('','',#5);
#5 = PRODUCT_DEFINITION('design','',#6,#9);
#6 = PRODUCT_DEFINITION_FORMATION_WITH_SPECIFIED_SOURCE('','',#7,
  .NOT_KNOWN.);
#7 = PRODUCT('Open CASCADE STEP translator 7.5 3487',
  'Open CASCADE STEP translator 7.5 3487','',(#8));
#8 = MECHANICAL_CONTEXT('',#2,'mechanical');
#9 = DESIGN_CONTEXT('',#2,'design');
#10 = ADVANCED_BREP_SHAPE_REPRESENTATION('',(#11,#15),#300);
#11 = AXIS2_PLACEMENT_3D('',#12,#13,#14);
#12 = CARTESIAN_POINT('',(0.,0.,0.));
#13 = DIRECTION('',(0.,0.,1.));
#14 = DIRECTION('',(1.,0.,-0.));
#15 = MANIFOLD_SOLID_BREP('',#16);
#16 = CLOSED_SHELL('',(#17,#261,#295));
#17 = ADVANCED_FACE('',(#18),#33,.T.);
#18 = FACE_BOUND('',#19,.T.);
#19 = EDGE_LOOP('',(#20,#124,#176));
#20 = ORIENTED_EDGE('',*,*,#21,.T.);
#21 = EDGE_CURVE('',#22,#24,#26,.T.);
#22 = VERTEX_POINT('',#23);
#23 = CARTESIAN_POINT('',(-1.750220358372E-02,1.002879111184E-03,
    -0.176363456994));
#24 = VERTEX_POINT('',#25);
#25 = CARTESIAN_POINT('',(0.987082332373,-3.293862471764E-03,
    0.184267828862));
#26 = SURFACE_CURVE('',#27,(#32,#78),.PCURVE_S1.);
#27 = B_SPLINE_CURVE_WITH_KNOTS('',3,(#28,#29,#30,#31),.UNSPECIFIED.,.F.
  ,.F.,(4,4),(0.,1.),.PIECEWISE_BEZIER_KNOTS.);
#28 = CARTESIAN_POINT('',(-1.750220358372E-02,1.002879111184E-03,
    -0.176363456994));
#29 = CARTESIAN_POINT('',(0.191874961974,-1.287268583652E-04,
    -0.14233677213));
#30 = CARTESIAN_POINT('',(0.9112409468,3.277030527517E-03,
    -7.236977646195E-02));
#31 = CARTESIAN_POINT('',(0.987082332373,-3.293862471764E-03,
    0.184267828862));
#32 = PCURVE('',#33,#50);
#33 = B_SPLINE_SURFACE_WITH_KNOTS('',3,3,(
    (#34,#35,#36,#37)
    ,(#38,#39,#40,#41)
    ,(#42,#43,#44,#45)
    ,(#46,#47,#48,#49
    )),.UNSPECIFIED.,.F.,.F.,.F.,(4,4),(4,4),(0.,1.),(0.,1.),
  .PIECEWISE_BEZIER_KNOTS.);
#34 = CARTESIAN_POINT('',(-9.532198309898E-02,-4.845537245274E-03,
    -0.158105686307));
#35 = CARTESIAN_POINT('',(-0.410149214841,-8.695728958775E-03,
    -0.177164893158));
#36 = CARTESIAN_POINT('',(-0.724436263541,-8.77168933441E-04,
    -2.500941523651E-02));
#37 = CARTESIAN_POINT('',(-0.982406973839,1.346500962973E-02,
    0.191137477756));
#38 = CARTESIAN_POINT('',(-9.751968598461E-02,-0.113239133862,
    -0.184995642128));
#39 = CARTESIAN_POINT('',(-0.413126955405,-0.539169813902,
    -0.205483123917));
#40 = CARTESIAN_POINT('',(-0.756456574307,-0.950949277886,
    -2.98279281953E-02));
#41 = CARTESIAN_POINT('',(-1.022572656811,-1.255220365925,0.170631109474
    ));
#42 = CARTESIAN_POINT('',(8.308898639191E-02,-0.104125857575,
    -0.186460006878));
#43 = CARTESIAN_POINT('',(0.402453172856,-0.564313880264,-0.208875454143
    ));
#44 = CARTESIAN_POINT('',(0.732495029026,-0.968152451322,
    -1.632887619124E-02));
#45 = CARTESIAN_POINT('',(0.984843978284,-1.286104903007,0.195504581));
#46 = CARTESIAN_POINT('',(6.959500908852E-02,-2.404130995274E-03,
    -0.195337131619));
#47 = CARTESIAN_POINT('',(0.418862323507,-2.496706348196E-02,
    -0.209567218942));
#48 = CARTESIAN_POINT('',(0.740511948016,-1.557860103101E-02,
    -5.245065569723E-02));
#49 = CARTESIAN_POINT('',(0.981948494911,-2.242366224527E-02,
    0.189916774631));
#50 = DEFINITIONAL_REPRESENTATION('',(#51),#77);
#51 = B_SPLINE_CURVE_WITH_KNOTS('',3,(#52,#53,#54,#55,#56,#57,#58,#59,
    #60,#61,#62,#63,#64,#65,#66,#67,#68,#69,#70,#71,#72,#73,#74,#75,#76)
  ,.UNSPECIFIED.,.F.,.F.,(4,1,1,1,1,1,1,1,1,1,1,1,1,1,1,1,1,1,1,1,1,1,4)
  ,(0.,4.545454545455E-02,9.090909090909E-02,0.136363636364,
    0.181818181818,0.227272727273,0.272727272727,0.318181818182,
    0.363636363636,0.409090909091,0.454545454545,0.5,0.545454545455,
    0.590909090909,0.636363636364,0.681818181818,0.727272727273,
    0.772727272727,0.818181818182,0.863636363636,0.909090909091,
    0.954545454545,1.),.QUASI_UNIFORM_KNOTS.);
#52 = CARTESIAN_POINT('',(-1.863681886736E-02,-6.824171522755E-03));
#53 = CARTESIAN_POINT('',(0.61993781004,-3.557084911725E-03));
#54 = CARTESIAN_POINT('',(1.208273151004,-6.253771722248E-03));
#55 = CARTESIAN_POINT('',(0.952939500639,-1.362194333212E-02));
#56 = CARTESIAN_POINT('',(1.018252665201,1.989577332314E-02));
#57 = CARTESIAN_POINT('',(1.008121763429,6.906983955833E-02));
#58 = CARTESIAN_POINT('',(1.008563887372,0.119578110212));
#59 = CARTESIAN_POINT('',(1.00614255524,0.174979506888));
#60 = CARTESIAN_POINT('',(1.005241407246,0.233305755326));
#61 = CARTESIAN_POINT('',(1.004365754091,0.293874090994));
#62 = CARTESIAN_POINT('',(1.003781280398,0.355621011179));
#63 = CARTESIAN_POINT('',(1.003321941015,0.417629330163));
#64 = CARTESIAN_POINT('',(1.002971712293,0.479061215561));
#65 = CARTESIAN_POINT('',(1.002695217954,0.539221758339));
#66 = CARTESIAN_POINT('',(1.002474996699,0.597557989083));
#67 = CARTESIAN_POINT('',(1.00229692703,0.653651940056));
#68 = CARTESIAN_POINT('',(1.002151389718,0.70720124318));
#69 = CARTESIAN_POINT('',(1.002031230385,0.7579971061));
#70 = CARTESIAN_POINT('',(1.001931212557,0.805902445216));
#71 = CARTESIAN_POINT('',(1.001847331138,0.850832111889));
#72 = CARTESIAN_POINT('',(1.001776820542,0.892735881103));
#73 = CARTESIAN_POINT('',(1.001716570679,0.931582636558));
#74 = CARTESIAN_POINT('',(1.001667910764,0.967349617956));
#75 = CARTESIAN_POINT('',(1.001634626584,0.989115574806));
#76 = CARTESIAN_POINT('',(1.001616306219,0.999473238854));
#77 = ( GEOMETRIC_REPRESENTATION_CONTEXT(2) 
PARAMETRIC_REPRESENTATION_CONTEXT() REPRESENTATION_CONTEXT('2D SPACE',''
  ) );
#78 = PCURVE('',#79,#96);
#79 = B_SPLINE_SURFACE_WITH_KNOTS('',3,3,(
    (#80,#81,#82,#83)
    ,(#84,#85,#86,#87)
    ,(#88,#89,#90,#91)
    ,(#92,#93,#94,#95
    )),.UNSPECIFIED.,.F.,.F.,.F.,(4,4),(4,4),(0.,1.),(0.,1.),
  .PIECEWISE_BEZIER_KNOTS.);
#80 = CARTESIAN_POINT('',(0.178942069411,-6.062532775104E-03,
    -0.152397274971));
#81 = CARTESIAN_POINT('',(0.50977944665,3.094722192851E-02,
    -0.184179390814));
#82 = CARTESIAN_POINT('',(0.82397264858,1.471454039706E-03,
    -2.289735964565E-03));
#83 = CARTESIAN_POINT('',(1.06212079525,6.876920349896E-03,
    0.261909365654));
#84 = CARTESIAN_POINT('',(0.138198892902,8.978594485729E-02,
    -0.154047379327));
#85 = CARTESIAN_POINT('',(0.444826026614,0.540480860346,-0.207065914361)
  );
#86 = CARTESIAN_POINT('',(0.795335694068,0.96343403981,
    1.763311533619E-02));
#87 = CARTESIAN_POINT('',(1.015590770663,1.264810941443,0.225482313617)
  );
#88 = CARTESIAN_POINT('',(-7.882108165017E-02,7.332845861044E-02,
    -0.162772088013));
#89 = CARTESIAN_POINT('',(-0.394125450841,0.528468593235,-0.213832705429
    ));
#90 = CARTESIAN_POINT('',(-0.749451283132,0.98436713239,
    -2.989477969911E-02));
#91 = CARTESIAN_POINT('',(-0.984253313086,1.286834845501,0.204531515515)
  );
#92 = CARTESIAN_POINT('',(-7.520832121372E-02,-5.574251525104E-03,
    -0.169609189034));
#93 = CARTESIAN_POINT('',(-0.42921110014,1.834573329435E-02,
    -0.22132535591));
#94 = CARTESIAN_POINT('',(-0.7729709227,9.061208554786E-03,
    -3.29778267781E-02));
#95 = CARTESIAN_POINT('',(-1.02576982975,1.24921547249E-02,
    0.207343935966));
#96 = DEFINITIONAL_REPRESENTATION('',(#97),#123);
#97 = B_SPLINE_CURVE_WITH_KNOTS('',3,(#98,#99,#100,#101,#102,#103,#104,
    #105,#106,#107,#108,#109,#110,#111,#112,#113,#114,#115,#116,#117,
    #118,#119,#120,#121,#122),.UNSPECIFIED.,.F.,.F.,(4,1,1,1,1,1,1,1,1,1
    ,1,1,1,1,1,1,1,1,1,1,1,1,4),(0.,4.545454545455E-02,
    9.090909090909E-02,0.136363636364,0.181818181818,0.227272727273,
    0.272727272727,0.318181818182,0.363636363636,0.409090909091,
    0.454545454545,0.5,0.545454545455,0.590909090909,0.636363636364,
    0.681818181818,0.727272727273,0.772727272727,0.818181818182,
    0.863636363636,0.909090909091,0.954545454545,1.),
  .QUASI_UNIFORM_KNOTS.);
#98 = CARTESIAN_POINT('',(0.74200814128,-4.912105486991E-03));
#99 = CARTESIAN_POINT('',(0.690514502504,-5.128216602807E-03));
#100 = CARTESIAN_POINT('',(0.594364663539,-5.56872016151E-03));
#101 = CARTESIAN_POINT('',(0.449400174757,-6.582408702957E-03));
#102 = CARTESIAN_POINT('',(0.294892823024,-3.993407667357E-03));
#103 = CARTESIAN_POINT('',(7.846827852668E-02,-8.839086283429E-03));
#104 = CARTESIAN_POINT('',(2.546027087128E-03,5.560182163882E-03));
#105 = CARTESIAN_POINT('',(7.615204536795E-04,6.658762097157E-02));
#106 = CARTESIAN_POINT('',(-7.629962943341E-03,0.122615297873));
#107 = CARTESIAN_POINT('',(-5.361654246512E-03,0.18542676163));
#108 = CARTESIAN_POINT('',(-4.67089205965E-03,0.249358867769));
#109 = CARTESIAN_POINT('',(-3.917945018723E-03,0.313972082549));
#110 = CARTESIAN_POINT('',(-3.501015197847E-03,0.377636520818));
#111 = CARTESIAN_POINT('',(-2.90264247939E-03,0.439982093894));
#112 = CARTESIAN_POINT('',(-3.419437315341E-03,0.498459348182));
#113 = CARTESIAN_POINT('',(-1.279320728454E-04,0.55971308596));
#114 = CARTESIAN_POINT('',(-2.991688109562E-03,0.613477703246));
#115 = CARTESIAN_POINT('',(-2.042166725925E-03,0.659972456471));
#116 = CARTESIAN_POINT('',(-2.139577847028E-03,0.708695205956));
#117 = CARTESIAN_POINT('',(-1.982553312742E-03,0.752812816711));
#118 = CARTESIAN_POINT('',(-1.928276536214E-03,0.794104787247));
#119 = CARTESIAN_POINT('',(-1.821616459998E-03,0.832293150908));
#120 = CARTESIAN_POINT('',(-1.905387130416E-03,0.866707195589));
#121 = CARTESIAN_POINT('',(-1.533849972664E-03,0.889050490479));
#122 = CARTESIAN_POINT('',(-1.153808952714E-03,0.900382636556));
#123 = ( GEOMETRIC_REPRESENTATION_CONTEXT(2) 
PARAMETRIC_REPRESENTATION_CONTEXT() REPRESENTATION_CONTEXT('2D SPACE',''
  ) );
#124 = ORIENTED_EDGE('',*,*,#125,.T.);
#125 = EDGE_CURVE('',#24,#126,#128,.T.);
#126 = VERTEX_POINT('',#127);
#127 = CARTESIAN_POINT('',(-0.993817766507,-1.890975923743E-03,
    0.188124554853));
#128 = SURFACE_CURVE('',#129,(#136,#149),.PCURVE_S1.);
#129 = B_SPLINE_CURVE_WITH_KNOTS('',5,(#130,#131,#132,#133,#134,#135),
  .UNSPECIFIED.,.F.,.F.,(6,6),(0.,1.),.PIECEWISE_BEZIER_KNOTS.);
#130 = CARTESIAN_POINT('',(0.987082332373,-3.293862471764E-03,
    0.184267828862));
#131 = CARTESIAN_POINT('',(0.971701817581,-0.616788143021,0.192827725904
    ));
#132 = CARTESIAN_POINT('',(0.50474054646,-1.269635339661,0.168712382302)
  );
#133 = CARTESIAN_POINT('',(-0.524921193051,-1.311010627241,
    0.206051088203));
#134 = CARTESIAN_POINT('',(-0.99633446833,-0.608848871541,0.172793188258
    ));
#135 = CARTESIAN_POINT('',(-0.993817766507,-1.890975923743E-03,
    0.188124554853));
#136 = PCURVE('',#33,#137);
#137 = DEFINITIONAL_REPRESENTATION('',(#138),#148);
#138 = B_SPLINE_CURVE_WITH_KNOTS('',8,(#139,#140,#141,#142,#143,#144,
    #145,#146,#147),.UNSPECIFIED.,.F.,.F.,(9,9),(0.,1.),
  .PIECEWISE_BEZIER_KNOTS.);
#139 = CARTESIAN_POINT('',(1.001616306219,0.999473238854));
#140 = CARTESIAN_POINT('',(0.90070225998,0.99098906547));
#141 = CARTESIAN_POINT('',(0.805858372737,0.915286347403));
#142 = CARTESIAN_POINT('',(0.541484578404,1.139842088152));
#143 = CARTESIAN_POINT('',(0.542308263945,0.915659095054));
#144 = CARTESIAN_POINT('',(0.389089193907,1.040149324862));
#145 = CARTESIAN_POINT('',(0.239066761176,1.006982380509));
#146 = CARTESIAN_POINT('',(0.103892531953,0.989541978214));
#147 = CARTESIAN_POINT('',(4.132648404045E-03,1.006587777911));
#148 = ( GEOMETRIC_REPRESENTATION_CONTEXT(2) 
PARAMETRIC_REPRESENTATION_CONTEXT() REPRESENTATION_CONTEXT('2D SPACE',''
  ) );
#149 = PCURVE('',#150,#167);
#150 = B_SPLINE_SURFACE_WITH_KNOTS('',3,3,(
    (#151,#152,#153,#154)
    ,(#155,#156,#157,#158)
    ,(#159,#160,#161,#162)
    ,(#163,#164,#165,#166
    )),.UNSPECIFIED.,.F.,.F.,.F.,(4,4),(4,4),(0.,1.),(0.,1.),
  .PIECEWISE_BEZIER_KNOTS.);
#151 = CARTESIAN_POINT('',(-1.070165991783,-1.025875806808,
    0.185729444027));
#152 = CARTESIAN_POINT('',(-1.073006195139,-0.320601880024,
    0.190663933427));
#153 = CARTESIAN_POINT('',(-1.069873226529,0.367193033485,0.18874965607)
  );
#154 = CARTESIAN_POINT('',(-1.068212866783,1.065921068192,0.189313352108
    ));
#155 = CARTESIAN_POINT('',(-0.370877455852,-1.024474694493,
    0.181400804279));
#156 = CARTESIAN_POINT('',(-0.362449524277,-0.338127146491,
    0.197151937389));
#157 = CARTESIAN_POINT('',(-0.359120392697,0.376913128957,0.182133660592
    ));
#158 = CARTESIAN_POINT('',(-0.368362999867,1.062192446633,0.18949982855)
  );
#159 = CARTESIAN_POINT('',(0.344552236081,-1.022720489107,0.188347546044
    ));
#160 = CARTESIAN_POINT('',(0.340395220473,-0.331176137398,0.189164326788
    ));
#161 = CARTESIAN_POINT('',(0.342754022318,0.361787998325,0.196694334858)
  );
#162 = CARTESIAN_POINT('',(0.344764484139,1.066548174274,0.185926245595)
  );
#163 = CARTESIAN_POINT('',(1.050927758217,-1.030758619308,0.180074155331
    ));
#164 = CARTESIAN_POINT('',(1.049777125623,-0.327611679243,0.191867116459
    ));
#165 = CARTESIAN_POINT('',(1.049550742624,0.36373931516,0.19047707683));
#166 = CARTESIAN_POINT('',(1.045068383217,1.062991380692,0.187322556973)
  );
#167 = DEFINITIONAL_REPRESENTATION('',(#168),#175);
#168 = B_SPLINE_CURVE_WITH_KNOTS('',5,(#169,#170,#171,#172,#173,#174),
  .UNSPECIFIED.,.F.,.F.,(6,6),(0.,1.),.PIECEWISE_BEZIER_KNOTS.);
#169 = CARTESIAN_POINT('',(0.970672627063,0.490024688845));
#170 = CARTESIAN_POINT('',(0.963151712992,0.196282154501));
#171 = CARTESIAN_POINT('',(0.74176376294,-0.117303998129));
#172 = CARTESIAN_POINT('',(0.260593720837,-0.135162600831));
#173 = CARTESIAN_POINT('',(3.537946739223E-02,0.197506126999));
#174 = CARTESIAN_POINT('',(3.631183732851E-02,0.488486919268));
#175 = ( GEOMETRIC_REPRESENTATION_CONTEXT(2) 
PARAMETRIC_REPRESENTATION_CONTEXT() REPRESENTATION_CONTEXT('2D SPACE',''
  ) );
#176 = ORIENTED_EDGE('',*,*,#177,.T.);
#177 = EDGE_CURVE('',#126,#22,#178,.T.);
#178 = SURFACE_CURVE('',#179,(#184,#213),.PCURVE_S1.);
#179 = B_SPLINE_CURVE_WITH_KNOTS('',3,(#180,#181,#182,#183),
  .UNSPECIFIED.,.F.,.F.,(4,4),(0.,1.),.PIECEWISE_BEZIER_KNOTS.);
#180 = CARTESIAN_POINT('',(-0.993817766507,-1.890975923743E-03,
    0.188124554853));
#181 = CARTESIAN_POINT('',(-0.764277785348,-1.385856121249E-03,
    -9.758830283054E-02));
#182 = CARTESIAN_POINT('',(-0.349159123587,-4.953262806696E-03,
    -0.108618886928));
#183 = CARTESIAN_POINT('',(-1.750220358372E-02,1.002879111184E-03,
    -0.176363456994));
#184 = PCURVE('',#33,#185);
#185 = DEFINITIONAL_REPRESENTATION('',(#186),#212);
#186 = B_SPLINE_CURVE_WITH_KNOTS('',3,(#187,#188,#189,#190,#191,#192,
    #193,#194,#195,#196,#197,#198,#199,#200,#201,#202,#203,#204,#205,
    #206,#207,#208,#209,#210,#211),.UNSPECIFIED.,.F.,.F.,(4,1,1,1,1,1,1,
    1,1,1,1,1,1,1,1,1,1,1,1,1,1,1,4),(0.,4.545454545455E-02,
    9.090909090909E-02,0.136363636364,0.181818181818,0.227272727273,
    0.272727272727,0.318181818182,0.363636363636,0.409090909091,
    0.454545454545,0.5,0.545454545455,0.590909090909,0.636363636364,
    0.681818181818,0.727272727273,0.772727272727,0.818181818182,
    0.863636363636,0.909090909091,0.954545454545,1.),
  .QUASI_UNIFORM_KNOTS.);
#187 = CARTESIAN_POINT('',(4.132648404045E-03,1.006587777911));
#188 = CARTESIAN_POINT('',(4.032760138741E-03,0.990474163777));
#189 = CARTESIAN_POINT('',(3.814066461129E-03,0.958549442544));
#190 = CARTESIAN_POINT('',(3.454147173968E-03,0.911332321012));
#191 = CARTESIAN_POINT('',(3.102921719093E-03,0.864539668565));
#192 = CARTESIAN_POINT('',(2.746012934845E-03,0.817953750545));
#193 = CARTESIAN_POINT('',(2.383507178194E-03,0.771375216684));
#194 = CARTESIAN_POINT('',(2.011082962849E-03,0.724622412012));
#195 = CARTESIAN_POINT('',(1.624755535504E-03,0.677530067918));
#196 = CARTESIAN_POINT('',(1.219193592341E-03,0.629949890366));
#197 = CARTESIAN_POINT('',(7.877097952236E-04,0.581752571449));
#198 = CARTESIAN_POINT('',(3.213430787821E-04,0.532831631193));
#199 = CARTESIAN_POINT('',(-1.910379750526E-04,0.483109594719));
#200 = CARTESIAN_POINT('',(-7.671654340346E-04,0.432546158537));
#201 = CARTESIAN_POINT('',(-1.420654357252E-03,0.381151261428));
#202 = CARTESIAN_POINT('',(-2.209198431375E-03,0.328992786901));
#203 = CARTESIAN_POINT('',(-3.066379478124E-03,0.276235454914));
#204 = CARTESIAN_POINT('',(-4.445738468067E-03,0.223068208222));
#205 = CARTESIAN_POINT('',(-4.938024328139E-03,0.170039703983));
#206 = CARTESIAN_POINT('',(-1.017890964504E-02,0.116842348239));
#207 = CARTESIAN_POINT('',(4.569268918679E-04,6.68333909212E-02));
#208 = CARTESIAN_POINT('',(1.49665117133E-03,8.708956155655E-03));
#209 = CARTESIAN_POINT('',(-1.329808248343E-02,-9.947173345321E-03));
#210 = CARTESIAN_POINT('',(-1.908153100565E-02,-9.830303179458E-03));
#211 = CARTESIAN_POINT('',(-1.863681886736E-02,-6.824171522755E-03));
#212 = ( GEOMETRIC_REPRESENTATION_CONTEXT(2) 
PARAMETRIC_REPRESENTATION_CONTEXT() REPRESENTATION_CONTEXT('2D SPACE',''
  ) );
#213 = PCURVE('',#79,#214);
#214 = DEFINITIONAL_REPRESENTATION('',(#215),#260);
#215 = B_SPLINE_CURVE_WITH_KNOTS('',8,(#216,#217,#218,#219,#220,#221,
    #222,#223,#224,#225,#226,#227,#228,#229,#230,#231,#232,#233,#234,
    #235,#236,#237,#238,#239,#240,#241,#242,#243,#244,#245,#246,#247,
    #248,#249,#250,#251,#252,#253,#254,#255,#256,#257,#258,#259),
  .UNSPECIFIED.,.F.,.F.,(9,7,7,7,7,7,9),(0.,0.5,0.75,0.875,0.9375,
    0.96875,1.),.UNSPECIFIED.);
#216 = CARTESIAN_POINT('',(1.001669626989,0.965003344607));
#217 = CARTESIAN_POINT('',(1.00063110469,0.899882650925));
#218 = CARTESIAN_POINT('',(1.000226510388,0.836876941245));
#219 = CARTESIAN_POINT('',(1.00031032141,0.775259165766));
#220 = CARTESIAN_POINT('',(1.000737015081,0.714302274689));
#221 = CARTESIAN_POINT('',(1.001361068727,0.653279218211));
#222 = CARTESIAN_POINT('',(1.002036959674,0.591462946532));
#223 = CARTESIAN_POINT('',(1.002619165247,0.52812640985));
#224 = CARTESIAN_POINT('',(1.003133661534,0.429750632624));
#225 = CARTESIAN_POINT('',(1.003354475216,0.396781174503));
#226 = CARTESIAN_POINT('',(1.003619607678,0.363701312793));
#227 = CARTESIAN_POINT('',(1.003924062778,0.330578176285));
#228 = CARTESIAN_POINT('',(1.004262844376,0.29747889377));
#229 = CARTESIAN_POINT('',(1.004630956329,0.264470594039));
#230 = CARTESIAN_POINT('',(1.005023402497,0.231620405883));
#231 = CARTESIAN_POINT('',(1.005641078861,0.182682984198));
#232 = CARTESIAN_POINT('',(1.006642881078,0.166410885125));
#233 = CARTESIAN_POINT('',(1.007850262729,0.150185913558));
#234 = CARTESIAN_POINT('',(1.008672893155,0.13401482218));
#235 = CARTESIAN_POINT('',(1.008520441694,0.117904363672));
#236 = CARTESIAN_POINT('',(1.006802577684,0.101861290717));
#237 = CARTESIAN_POINT('',(1.002928970466,8.589235599777E-02));
#238 = CARTESIAN_POINT('',(0.992999448833,6.206029029699E-02));
#239 = CARTESIAN_POINT('',(0.987321605749,5.412425550062E-02));
#240 = CARTESIAN_POINT('',(0.983380786524,4.616237211531E-02));
#241 = CARTESIAN_POINT('',(0.98347576386,3.816073137472E-02));
#242 = CARTESIAN_POINT('',(0.988099056755,3.012535143893E-02));
#243 = CARTESIAN_POINT('',(0.995936930507,2.208217739444E-02));
#244 = CARTESIAN_POINT('',(1.003869396717,1.407708125424E-02));
#245 = CARTESIAN_POINT('',(1.008520621563,2.225252309465E-03));
#246 = CARTESIAN_POINT('',(1.034594653689,-3.449693082423E-03));
#247 = CARTESIAN_POINT('',(0.893680907935,-3.510922667283E-04));
#248 = CARTESIAN_POINT('',(1.207578459955,-1.504564712866E-02));
#249 = CARTESIAN_POINT('',(0.814247460627,-1.873349326267E-02));
#250 = CARTESIAN_POINT('',(0.885387931816,-9.734068851638E-03));
#251 = CARTESIAN_POINT('',(0.834358065014,-1.015716617307E-02));
#252 = CARTESIAN_POINT('',(0.776563618739,-7.123962900478E-03));
#253 = CARTESIAN_POINT('',(0.745668673861,-5.226546605453E-03));
#254 = CARTESIAN_POINT('',(0.724791017562,-3.851728392774E-03));
#255 = CARTESIAN_POINT('',(0.719528813236,-3.452578874731E-03));
#256 = CARTESIAN_POINT('',(0.729063377358,-4.031826534821E-03));
#257 = CARTESIAN_POINT('',(0.746159179476,-5.141857727748E-03));
#258 = CARTESIAN_POINT('',(0.757163842216,-5.88471667943E-03));
#259 = CARTESIAN_POINT('',(0.74200814128,-4.912105486991E-03));
#260 = ( GEOMETRIC_REPRESENTATION_CONTEXT(2) 
PARAMETRIC_REPRESENTATION_CONTEXT() REPRESENTATION_CONTEXT('2D SPACE',''
  ) );
#261 = ADVANCED_FACE('',(#262),#79,.T.);
#262 = FACE_BOUND('',#263,.F.);
#263 = EDGE_LOOP('',(#264,#265,#294));
#264 = ORIENTED_EDGE('',*,*,#21,.T.);
#265 = ORIENTED_EDGE('',*,*,#266,.F.);
#266 = EDGE_CURVE('',#126,#24,#267,.T.);
#267 = SURFACE_CURVE('',#268,(#274,#285),.PCURVE_S1.);
#268 = B_SPLINE_CURVE_WITH_KNOTS('',4,(#269,#270,#271,#272,#273),
  .UNSPECIFIED.,.F.,.F.,(5,5),(0.,1.),.PIECEWISE_BEZIER_KNOTS.);
#269 = CARTESIAN_POINT('',(-0.993817766507,-1.890975923743E-03,
    0.188124554853));
#270 = CARTESIAN_POINT('',(-1.034060166093,0.761954563313,0.197285117219
    ));
#271 = CARTESIAN_POINT('',(-1.677715977093E-02,1.706685545662,
    0.177658953543));
#272 = CARTESIAN_POINT('',(1.060041046166,0.758796378361,0.201867414652)
  );
#273 = CARTESIAN_POINT('',(0.987082332373,-3.293862471764E-03,
    0.184267828862));
#274 = PCURVE('',#79,#275);
#275 = DEFINITIONAL_REPRESENTATION('',(#276),#284);
#276 = B_SPLINE_CURVE_WITH_KNOTS('',6,(#277,#278,#279,#280,#281,#282,
    #283),.UNSPECIFIED.,.F.,.F.,(7,7),(0.,1.),.PIECEWISE_BEZIER_KNOTS.);
#277 = CARTESIAN_POINT('',(1.001669626989,0.965003344607));
#278 = CARTESIAN_POINT('',(0.865498947538,0.997908813672));
#279 = CARTESIAN_POINT('',(0.638928572511,0.895765266026));
#280 = CARTESIAN_POINT('',(0.501342088306,1.206315819188));
#281 = CARTESIAN_POINT('',(0.377681184126,0.908699262012));
#282 = CARTESIAN_POINT('',(0.144423581145,0.944507893801));
#283 = CARTESIAN_POINT('',(-1.153808952714E-03,0.900382636556));
#284 = ( GEOMETRIC_REPRESENTATION_CONTEXT(2) 
PARAMETRIC_REPRESENTATION_CONTEXT() REPRESENTATION_CONTEXT('2D SPACE',''
  ) );
#285 = PCURVE('',#150,#286);
#286 = DEFINITIONAL_REPRESENTATION('',(#287),#293);
#287 = B_SPLINE_CURVE_WITH_KNOTS('',4,(#288,#289,#290,#291,#292),
  .UNSPECIFIED.,.F.,.F.,(5,5),(0.,1.),.PIECEWISE_BEZIER_KNOTS.);
#288 = CARTESIAN_POINT('',(3.631183732851E-02,0.488486919268));
#289 = CARTESIAN_POINT('',(1.673349087466E-02,0.854494791369));
#290 = CARTESIAN_POINT('',(0.497843190685,1.307256325071));
#291 = CARTESIAN_POINT('',(1.005693857061,0.854958367388));
#292 = CARTESIAN_POINT('',(0.970672627063,0.490024688845));
#293 = ( GEOMETRIC_REPRESENTATION_CONTEXT(2) 
PARAMETRIC_REPRESENTATION_CONTEXT() REPRESENTATION_CONTEXT('2D SPACE',''
  ) );
#294 = ORIENTED_EDGE('',*,*,#177,.T.);
#295 = ADVANCED_FACE('',(#296),#150,.T.);
#296 = FACE_BOUND('',#297,.F.);
#297 = EDGE_LOOP('',(#298,#299));
#298 = ORIENTED_EDGE('',*,*,#125,.T.);
#299 = ORIENTED_EDGE('',*,*,#266,.T.);
#300 = ( GEOMETRIC_REPRESENTATION_CONTEXT(3) 
GLOBAL_UNCERTAINTY_ASSIGNED_CONTEXT((#304)) GLOBAL_UNIT_ASSIGNED_CONTEXT
((#301,#302,#303)) REPRESENTATION_CONTEXT('Context #1',
  '3D Context with UNIT and UNCERTAINTY') );
#301 = ( LENGTH_UNIT() NAMED_UNIT(*) SI_UNIT(.MILLI.,.METRE.) );
#302 = ( NAMED_UNIT(*) PLANE_ANGLE_UNIT() SI_UNIT($,.RADIAN.) );
#303 = ( NAMED_UNIT(*) SI_UNIT($,.STERADIAN.) SOLID_ANGLE_UNIT() );
#304 = UNCERTAINTY_MEASURE_WITH_UNIT(LENGTH_MEASURE(5.E-02),#301,
  'distance_accuracy_value','confusion accuracy');
#305 = PRODUCT_RELATED_PRODUCT_CATEGORY('detail',$,(#7));
#306 = PRODUCT_CATEGORY_RELATIONSHIP('','',#307,#305);
#307 = PRODUCT_CATEGORY('part',$);
#308 = CC_DESIGN_PERSON_AND_ORGANIZATION_ASSIGNMENT(#309,#312,(#6,#5));
#309 = PERSON_AND_ORGANIZATION(#310,#311);
#310 = PERSON('IP127.0.1,workstation-5','','workstation-5,,,',$,$,$);
#311 = ORGANIZATION('IP127.0.1','Unspecified','');
#312 = PERSON_AND_ORGANIZATION_ROLE('creator');
#313 = CC_DESIGN_PERSON_AND_ORGANIZATION_ASSIGNMENT(#309,#314,(#7));
#314 = PERSON_AND_ORGANIZATION_ROLE('design_owner');
#315 = CC_DESIGN_PERSON_AND_ORGANIZATION_ASSIGNMENT(#309,#316,(#6));
#316 = PERSON_AND_ORGANIZATION_ROLE('design_supplier');
#317 = CC_DESIGN_PERSON_AND_ORGANIZATION_ASSIGNMENT(#309,#318,(#319));
#318 = PERSON_AND_ORGANIZATION_ROLE('classification_officer');
#319 = SECURITY_CLASSIFICATION('','',#320);
#320 = SECURITY_CLASSIFICATION_LEVEL('unclassified');
#321 = CC_DESIGN_SECURITY_CLASSIFICATION(#319,(#6));
#322 = CC_DESIGN_DATE_AND_TIME_ASSIGNMENT(#323,#327,(#5));
#323 = DATE_AND_TIME(#324,#325);
#324 = CALENDAR_DATE(2024,27,7);
#325 = LOCAL_TIME(15,14,$,#326);
#326 = COORDINATED_UNIVERSAL_TIME_OFFSET(5,$,.BEHIND.);
#327 = DATE_TIME_ROLE('creation_date');
#328 = CC_DESIGN_DATE_AND_TIME_ASSIGNMENT(#323,#329,(#319));
#329 = DATE_TIME_ROLE('classification_date');
#330 = CC_DESIGN_APPROVAL(#331,(#6,#5,#319));
#331 = APPROVAL(#332,'');
#332 = APPROVAL_STATUS('not_yet_approved');
#333 = APPROVAL_PERSON_ORGANIZATION(#309,#331,#334);
#334 = APPROVAL_ROLE('approver');
#335 = APPROVAL_DATE_TIME(#323,#331);
ENDSEC;
END-ISO-10303-21;
