ISO-10303-21;
HEADER;
FILE_DESCRIPTION(('Open CASCADE Model'),'2;1');
FILE_NAME('Open CASCADE Shape Model','2024-12-04T13:03:39',('Author'),(
    'Open CASCADE'),'Open CASCADE STEP processor 7.5','Open CASCADE 7.5'
  ,'Unknown');
FILE_SCHEMA(('CONFIG_CONTROL_DESIGN'));
ENDSEC;
DATA;
#1 = APPLICATION_PROTOCOL_DEFINITION('international standard',
  'config_control_design',1994,#2);
#2 = APPLICATION_CONTEXT(
'configuration controlled 3D designs of mechanical parts and assemblies'
  );
#3 = SHAPE_DEFINITION_REPRESENTATION(#4,#10);
#4 = PRODUCT_DEFINITION_SHAPE('','',#5);
#5 = PRODUCT_DEFINITION('design','',#6,#9);
#6 = PRODUCT_DEFINITION_FORMATION_WITH_SPECIFIED_SOURCE('','',#7,
  .NOT_KNOWN.);
#7 = PRODUCT('Open CASCADE STEP translator 7.5 3272',
  'Open CASCADE STEP translator 7.5 3272','',(#8));
#8 = MECHANICAL_CONTEXT('',#2,'mechanical');
#9 = DESIGN_CONTEXT('',#2,'design');
#10 = ADVANCED_BREP_SHAPE_REPRESENTATION('',(#11,#15),#295);
#11 = AXIS2_PLACEMENT_3D('',#12,#13,#14);
#12 = CARTESIAN_POINT('',(0.,0.,0.));
#13 = DIRECTION('',(0.,0.,1.));
#14 = DIRECTION('',(1.,0.,-0.));
#15 = MANIFOLD_SOLID_BREP('',#16);
#16 = CLOSED_SHELL('',(#17,#169,#288));
#17 = ADVANCED_FACE('',(#18),#33,.T.);
#18 = FACE_BOUND('',#19,.T.);
#19 = EDGE_LOOP('',(#20,#124));
#20 = ORIENTED_EDGE('',*,*,#21,.T.);
#21 = EDGE_CURVE('',#22,#24,#26,.T.);
#22 = VERTEX_POINT('',#23);
#23 = CARTESIAN_POINT('',(0.438652411103,-7.906643984218E-03,
    -0.998220081131));
#24 = VERTEX_POINT('',#25);
#25 = CARTESIAN_POINT('',(-0.397277906537,-7.6377268803E-03,
    -0.999782810609));
#26 = SURFACE_CURVE('',#27,(#32,#78),.PCURVE_S1.);
#27 = B_SPLINE_CURVE_WITH_KNOTS('',3,(#28,#29,#30,#31),.UNSPECIFIED.,.F.
  ,.F.,(4,4),(0.,1.),.PIECEWISE_BEZIER_KNOTS.);
#28 = CARTESIAN_POINT('',(0.438652411103,-7.906643984218E-03,
    -0.998220081131));
#29 = CARTESIAN_POINT('',(0.401946884122,-0.551961713302,-0.994867235644
    ));
#30 = CARTESIAN_POINT('',(-0.363423022697,-0.554910813142,
    -1.001553312167));
#31 = CARTESIAN_POINT('',(-0.397277906537,-7.6377268803E-03,
    -0.999782810609));
#32 = PCURVE('',#33,#50);
#33 = B_SPLINE_SURFACE_WITH_KNOTS('',3,3,(
    (#34,#35,#36,#37)
    ,(#38,#39,#40,#41)
    ,(#42,#43,#44,#45)
    ,(#46,#47,#48,#49
    )),.UNSPECIFIED.,.F.,.F.,.F.,(4,4),(4,4),(0.,1.),(0.,1.),
  .PIECEWISE_BEZIER_KNOTS.);
#34 = CARTESIAN_POINT('',(0.455584347248,-0.454838484526,-0.999399781227
    ));
#35 = CARTESIAN_POINT('',(0.459593202675,-0.150270521238,-1.001296155468
    ));
#36 = CARTESIAN_POINT('',(0.452960750787,0.15137622895,-0.995212460836)
  );
#37 = CARTESIAN_POINT('',(0.456805050373,0.449214249849,-1.000504136086)
  );
#38 = CARTESIAN_POINT('',(0.153540891043,-0.448967740932,-0.997572348664
    ));
#39 = CARTESIAN_POINT('',(0.145729215085,-0.148589631006,-0.989576168661
    ));
#40 = CARTESIAN_POINT('',(0.159047066712,0.145819849098,-1.000318381456)
  );
#41 = CARTESIAN_POINT('',(0.150795928929,0.455413668302,-0.995157269999)
  );
#42 = CARTESIAN_POINT('',(-0.155265661534,-0.452574861143,
    -0.998865159729));
#43 = CARTESIAN_POINT('',(-0.148488077263,-0.155415054945,
    -1.002024980547));
#44 = CARTESIAN_POINT('',(-0.155151059635,0.156509327904,-0.994089660458
    ));
#45 = CARTESIAN_POINT('',(-0.153931928654,0.449252519961,-1.001140107168
    ));
#46 = CARTESIAN_POINT('',(-0.456280887127,-0.454594343901,
    -1.003464341164));
#47 = CARTESIAN_POINT('',(-0.456464549264,-0.151295016875,
    -0.994789039858));
#48 = CARTESIAN_POINT('',(-0.45911522306,0.146289118381,-1.006720966762)
  );
#49 = CARTESIAN_POINT('',(-0.455792605877,0.450923234224,-0.998010277748
    ));
#50 = DEFINITIONAL_REPRESENTATION('',(#51),#77);
#51 = B_SPLINE_CURVE_WITH_KNOTS('',3,(#52,#53,#54,#55,#56,#57,#58,#59,
    #60,#61,#62,#63,#64,#65,#66,#67,#68,#69,#70,#71,#72,#73,#74,#75,#76)
  ,.UNSPECIFIED.,.F.,.F.,(4,1,1,1,1,1,1,1,1,1,1,1,1,1,1,1,1,1,1,1,1,1,4)
  ,(0.,4.545454545455E-02,9.090909090909E-02,0.136363636364,
    0.181818181818,0.227272727273,0.272727272727,0.318181818182,
    0.363636363636,0.409090909091,0.454545454545,0.5,0.545454545455,
    0.590909090909,0.636363636364,0.681818181818,0.727272727273,
    0.772727272727,0.818181818182,0.863636363636,0.909090909091,
    0.954545454545,1.),.QUASI_UNIFORM_KNOTS.);
#52 = CARTESIAN_POINT('',(1.934111137685E-02,0.491570761888));
#53 = CARTESIAN_POINT('',(2.128230537221E-02,0.46422173805));
#54 = CARTESIAN_POINT('',(2.841127301404E-02,0.41202569501));
#55 = CARTESIAN_POINT('',(4.794774133586E-02,0.341180896656));
#56 = CARTESIAN_POINT('',(7.540105209938E-02,0.277713891703));
#57 = CARTESIAN_POINT('',(0.109948114018,0.221604745186));
#58 = CARTESIAN_POINT('',(0.150769595276,0.172864090557));
#59 = CARTESIAN_POINT('',(0.197019530531,0.131524042362));
#60 = CARTESIAN_POINT('',(0.247805897506,9.762555408371E-02));
#61 = CARTESIAN_POINT('',(0.302201631801,7.121126820061E-02));
#62 = CARTESIAN_POINT('',(0.359269782371,5.232167348288E-02));
#63 = CARTESIAN_POINT('',(0.418089155508,4.099236703241E-02));
#64 = CARTESIAN_POINT('',(0.477767966563,3.724966943706E-02));
#65 = CARTESIAN_POINT('',(0.537440636737,4.110423413784E-02));
#66 = CARTESIAN_POINT('',(0.596250582908,5.254523467692E-02));
#67 = CARTESIAN_POINT('',(0.653327575629,7.153935697477E-02));
#68 = CARTESIAN_POINT('',(0.707770118028,9.803789009081E-02));
#69 = CARTESIAN_POINT('',(0.758641014865,0.131991846029));
#70 = CARTESIAN_POINT('',(0.804978725566,0.173370593604));
#71 = CARTESIAN_POINT('',(0.845820239721,0.222175610896));
#72 = CARTESIAN_POINT('',(0.880225543503,0.278441436173));
#73 = CARTESIAN_POINT('',(0.907292681095,0.3422172987));
#74 = CARTESIAN_POINT('',(0.926155293223,0.41354374567));
#75 = CARTESIAN_POINT('',(0.932698145815,0.466116761321));
#76 = CARTESIAN_POINT('',(0.934319808061,0.493658628439));
#77 = ( GEOMETRIC_REPRESENTATION_CONTEXT(2) 
PARAMETRIC_REPRESENTATION_CONTEXT() REPRESENTATION_CONTEXT('2D SPACE',''
  ) );
#78 = PCURVE('',#79,#96);
#79 = B_SPLINE_SURFACE_WITH_KNOTS('',3,3,(
    (#80,#81,#82,#83)
    ,(#84,#85,#86,#87)
    ,(#88,#89,#90,#91)
    ,(#92,#93,#94,#95
    )),.UNSPECIFIED.,.F.,.F.,.F.,(4,4),(4,4),(0.,1.),(0.,1.),
  .PIECEWISE_BEZIER_KNOTS.);
#80 = CARTESIAN_POINT('',(0.205101937056,0.152878433466,0.996450483799)
  );
#81 = CARTESIAN_POINT('',(0.289573676872,0.121321255461,0.325579262183)
  );
#82 = CARTESIAN_POINT('',(0.359431430697,0.11117111823,-0.341960910383)
  );
#83 = CARTESIAN_POINT('',(0.436791390181,9.965578466654E-02,
    -1.018198013306));
#84 = CARTESIAN_POINT('',(0.21953250695,-0.186943387063,1.007131534661)
  );
#85 = CARTESIAN_POINT('',(0.271133602081,-0.276642551095,0.344639030244)
  );
#86 = CARTESIAN_POINT('',(0.368101563987,-0.364991884046,-0.343418142285
    ));
#87 = CARTESIAN_POINT('',(0.436038508348,-0.487411841075,-1.001105512243
    ));
#88 = CARTESIAN_POINT('',(-0.266300147827,-0.200556254584,1.01530639529)
  );
#89 = CARTESIAN_POINT('',(-0.322902353611,-0.30051851213,0.324317921467)
  );
#90 = CARTESIAN_POINT('',(-0.428065744365,-0.407309199335,
    -0.327511509717));
#91 = CARTESIAN_POINT('',(-0.506996302557,-0.512392570409,
    -1.001150353284));
#92 = CARTESIAN_POINT('',(-0.242407828569,0.136521011591,1.001333236694)
  );
#93 = CARTESIAN_POINT('',(-0.344553157158,0.109530452116,0.342222811473)
  );
#94 = CARTESIAN_POINT('',(-0.420534194598,0.100333008752,-0.337382010373
    ));
#95 = CARTESIAN_POINT('',(-0.513403892517,8.329836279154E-02,
    -1.010385513306));
#96 = DEFINITIONAL_REPRESENTATION('',(#97),#123);
#97 = B_SPLINE_CURVE_WITH_KNOTS('',3,(#98,#99,#100,#101,#102,#103,#104,
    #105,#106,#107,#108,#109,#110,#111,#112,#113,#114,#115,#116,#117,
    #118,#119,#120,#121,#122),.UNSPECIFIED.,.F.,.F.,(4,1,1,1,1,1,1,1,1,1
    ,1,1,1,1,1,1,1,1,1,1,1,1,4),(0.,4.545454545455E-02,
    9.090909090909E-02,0.136363636364,0.181818181818,0.227272727273,
    0.272727272727,0.318181818182,0.363636363636,0.409090909091,
    0.454545454545,0.5,0.545454545455,0.590909090909,0.636363636364,
    0.681818181818,0.727272727273,0.772727272727,0.818181818182,
    0.863636363636,0.909090909091,0.954545454545,1.),
  .QUASI_UNIFORM_KNOTS.);
#98 = CARTESIAN_POINT('',(6.355972175125E-02,0.992485228955));
#99 = CARTESIAN_POINT('',(7.864711392357E-02,0.992949850295));
#100 = CARTESIAN_POINT('',(0.107923728776,0.993890451873));
#101 = CARTESIAN_POINT('',(0.149337049672,0.995280266419));
#102 = CARTESIAN_POINT('',(0.188305983168,0.996588960883));
#103 = CARTESIAN_POINT('',(0.225362669141,0.997773540123));
#104 = CARTESIAN_POINT('',(0.261041910849,0.998806743899));
#105 = CARTESIAN_POINT('',(0.29582109207,0.999674247449));
#106 = CARTESIAN_POINT('',(0.330065337376,1.000369936635));
#107 = CARTESIAN_POINT('',(0.364035705429,1.000892191905));
#108 = CARTESIAN_POINT('',(0.39790805689,1.001241164706));
#109 = CARTESIAN_POINT('',(0.431798312447,1.001416959033));
#110 = CARTESIAN_POINT('',(0.465787894251,1.001418429245));
#111 = CARTESIAN_POINT('',(0.499949080932,1.001242381405));
#112 = CARTESIAN_POINT('',(0.534371270408,1.000883045543));
#113 = CARTESIAN_POINT('',(0.569190617604,1.000331792506));
#114 = CARTESIAN_POINT('',(0.604627262711,0.99957719613));
#115 = CARTESIAN_POINT('',(0.641034832696,0.998605717249));
#116 = CARTESIAN_POINT('',(0.678973582046,0.997403628701));
#117 = CARTESIAN_POINT('',(0.719298052118,0.995961411371));
#118 = CARTESIAN_POINT('',(0.763294899188,0.994283641137));
#119 = CARTESIAN_POINT('',(0.81252857792,0.992409227707));
#120 = CARTESIAN_POINT('',(0.868595525278,0.990450449937));
#121 = CARTESIAN_POINT('',(0.908834586259,0.989221527565));
#122 = CARTESIAN_POINT('',(0.929442837229,0.988655426139));
#123 = ( GEOMETRIC_REPRESENTATION_CONTEXT(2) 
PARAMETRIC_REPRESENTATION_CONTEXT() REPRESENTATION_CONTEXT('2D SPACE',''
  ) );
#124 = ORIENTED_EDGE('',*,*,#125,.T.);
#125 = EDGE_CURVE('',#24,#22,#126,.T.);
#126 = SURFACE_CURVE('',#127,(#132,#142),.PCURVE_S1.);
#127 = B_SPLINE_CURVE_WITH_KNOTS('',3,(#128,#129,#130,#131),
  .UNSPECIFIED.,.F.,.F.,(4,4),(0.,1.),.PIECEWISE_BEZIER_KNOTS.);
#128 = CARTESIAN_POINT('',(-0.397277906537,-7.6377268803E-03,
    -0.999782810609));
#129 = CARTESIAN_POINT('',(-0.370659479644,0.553202907916,
    -1.000032367288));
#130 = CARTESIAN_POINT('',(0.416783609316,0.553363547936,-0.997122878909
    ));
#131 = CARTESIAN_POINT('',(0.438652411103,-7.906643984218E-03,
    -0.998220081131));
#132 = PCURVE('',#33,#133);
#133 = DEFINITIONAL_REPRESENTATION('',(#134),#141);
#134 = B_SPLINE_CURVE_WITH_KNOTS('',5,(#135,#136,#137,#138,#139,#140),
  .UNSPECIFIED.,.F.,.F.,(6,6),(0.,1.),.PIECEWISE_BEZIER_KNOTS.);
#135 = CARTESIAN_POINT('',(0.934319808061,0.493658628439));
#136 = CARTESIAN_POINT('',(0.916035789766,0.86591770926));
#137 = CARTESIAN_POINT('',(0.648604394994,1.048163540843));
#138 = CARTESIAN_POINT('',(0.301203609305,1.051468315801));
#139 = CARTESIAN_POINT('',(3.221491230516E-02,0.86403618));
#140 = CARTESIAN_POINT('',(1.934111137685E-02,0.491570761888));
#141 = ( GEOMETRIC_REPRESENTATION_CONTEXT(2) 
PARAMETRIC_REPRESENTATION_CONTEXT() REPRESENTATION_CONTEXT('2D SPACE',''
  ) );
#142 = PCURVE('',#143,#160);
#143 = B_SPLINE_SURFACE_WITH_KNOTS('',3,3,(
    (#144,#145,#146,#147)
    ,(#148,#149,#150,#151)
    ,(#152,#153,#154,#155)
    ,(#156,#157,#158,#159
    )),.UNSPECIFIED.,.F.,.F.,.F.,(4,4),(4,4),(0.,1.),(0.,1.),
  .PIECEWISE_BEZIER_KNOTS.);
#144 = CARTESIAN_POINT('',(-0.273127198219,-0.124920323491,
    1.001426458359));
#145 = CARTESIAN_POINT('',(-0.356201490595,-0.11430536178,0.333493120909
    ));
#146 = CARTESIAN_POINT('',(-0.427903085335,-9.70580363919E-02,
    -0.331434858304));
#147 = CARTESIAN_POINT('',(-0.506281495094,-0.107952550054,
    -1.001503229141));
#148 = CARTESIAN_POINT('',(-0.284216673757,0.183955385944,0.999107562393
    ));
#149 = CARTESIAN_POINT('',(-0.336540903568,0.276444717914,0.338294836347
    ));
#150 = CARTESIAN_POINT('',(-0.427005954212,0.345249895703,
    -0.344746250335));
#151 = CARTESIAN_POINT('',(-0.488418679153,0.457512610998,
    -1.001088432969));
#152 = CARTESIAN_POINT('',(0.196410348183,0.198438680256,1.001710373145)
  );
#153 = CARTESIAN_POINT('',(0.251542422641,0.281527791122,0.32390909503)
  );
#154 = CARTESIAN_POINT('',(0.352060743295,0.386959501999,-0.327148150396
    ));
#155 = CARTESIAN_POINT('',(0.414508142606,0.475410018709,-1.009320701389
    ));
#156 = CARTESIAN_POINT('',(0.184270262718,-0.111736729741,1.006309270859
    ));
#157 = CARTESIAN_POINT('',(0.285706146125,-9.408228879316E-02,
    0.337417325217));
#158 = CARTESIAN_POINT('',(0.356693277353,-9.330224259569E-02,
    -0.34363766254));
#159 = CARTESIAN_POINT('',(0.454167723656,-8.18295031786E-02,
    -1.006386041641));
#160 = DEFINITIONAL_REPRESENTATION('',(#161),#168);
#161 = B_SPLINE_CURVE_WITH_KNOTS('',5,(#162,#163,#164,#165,#166,#167),
  .UNSPECIFIED.,.F.,.F.,(6,6),(0.,1.),.PIECEWISE_BEZIER_KNOTS.);
#162 = CARTESIAN_POINT('',(8.206484771199E-02,0.994101593802));
#163 = CARTESIAN_POINT('',(0.30795571672,0.997919928596));
#164 = CARTESIAN_POINT('',(0.554072481866,1.006088068472));
#165 = CARTESIAN_POINT('',(0.555443773753,1.002717240326));
#166 = CARTESIAN_POINT('',(0.735024190296,0.999147232313));
#167 = CARTESIAN_POINT('',(0.952881635784,0.99551016482));
#168 = ( GEOMETRIC_REPRESENTATION_CONTEXT(2) 
PARAMETRIC_REPRESENTATION_CONTEXT() REPRESENTATION_CONTEXT('2D SPACE',''
  ) );
#169 = ADVANCED_FACE('',(#170),#79,.T.);
#170 = FACE_BOUND('',#171,.F.);
#171 = EDGE_LOOP('',(#172,#173,#198,#265));
#172 = ORIENTED_EDGE('',*,*,#21,.T.);
#173 = ORIENTED_EDGE('',*,*,#174,.T.);
#174 = EDGE_CURVE('',#24,#175,#177,.T.);
#175 = VERTEX_POINT('',#176);
#176 = CARTESIAN_POINT('',(-0.367713626474,-5.648871010635E-03,
    0.997099116445));
#177 = SURFACE_CURVE('',#178,(#182,#190),.PCURVE_S1.);
#178 = B_SPLINE_CURVE_WITH_KNOTS('',2,(#179,#180,#181),.UNSPECIFIED.,.F.
  ,.F.,(3,3),(0.,1.),.PIECEWISE_BEZIER_KNOTS.);
#179 = CARTESIAN_POINT('',(-0.397277906537,-7.6377268803E-03,
    -0.999782810609));
#180 = CARTESIAN_POINT('',(-0.382078369719,-4.391356776378E-03,
    -1.361565008763E-03));
#181 = CARTESIAN_POINT('',(-0.367713626474,-5.648871010635E-03,
    0.997099116445));
#182 = PCURVE('',#79,#183);
#183 = DEFINITIONAL_REPRESENTATION('',(#184),#189);
#184 = B_SPLINE_CURVE_WITH_KNOTS('',3,(#185,#186,#187,#188),
  .UNSPECIFIED.,.F.,.F.,(4,4),(0.,1.),.PIECEWISE_BEZIER_KNOTS.);
#185 = CARTESIAN_POINT('',(0.929442837229,0.988655426139));
#186 = CARTESIAN_POINT('',(0.915466070727,0.66225654212));
#187 = CARTESIAN_POINT('',(0.901776410634,0.342562442888));
#188 = CARTESIAN_POINT('',(0.887698448445,1.380033992033E-02));
#189 = ( GEOMETRIC_REPRESENTATION_CONTEXT(2) 
PARAMETRIC_REPRESENTATION_CONTEXT() REPRESENTATION_CONTEXT('2D SPACE',''
  ) );
#190 = PCURVE('',#143,#191);
#191 = DEFINITIONAL_REPRESENTATION('',(#192),#197);
#192 = B_SPLINE_CURVE_WITH_KNOTS('',3,(#193,#194,#195,#196),
  .UNSPECIFIED.,.F.,.F.,(4,4),(0.,1.),.PIECEWISE_BEZIER_KNOTS.);
#193 = CARTESIAN_POINT('',(8.206484771199E-02,0.994101593802));
#194 = CARTESIAN_POINT('',(8.871213377747E-02,0.663744465816));
#195 = CARTESIAN_POINT('',(9.524750739165E-02,0.33894916797));
#196 = CARTESIAN_POINT('',(0.101901430819,8.262176045346E-03));
#197 = ( GEOMETRIC_REPRESENTATION_CONTEXT(2) 
PARAMETRIC_REPRESENTATION_CONTEXT() REPRESENTATION_CONTEXT('2D SPACE',''
  ) );
#198 = ORIENTED_EDGE('',*,*,#199,.T.);
#199 = EDGE_CURVE('',#175,#200,#202,.T.);
#200 = VERTEX_POINT('',#201);
#201 = CARTESIAN_POINT('',(0.177090663463,-4.189720726572E-03,
    0.996072806418));
#202 = SURFACE_CURVE('',#203,(#207,#236),.PCURVE_S1.);
#203 = B_SPLINE_CURVE_WITH_KNOTS('',2,(#204,#205,#206),.UNSPECIFIED.,.F.
  ,.F.,(3,3),(0.,1.),.PIECEWISE_BEZIER_KNOTS.);
#204 = CARTESIAN_POINT('',(-0.367713626474,-5.648871010635E-03,
    0.997099116445));
#205 = CARTESIAN_POINT('',(-9.531271641838E-02,-3.214523189962E-03,
    0.997264665647));
#206 = CARTESIAN_POINT('',(0.177090663463,-4.189720726572E-03,
    0.996072806418));
#207 = PCURVE('',#79,#208);
#208 = DEFINITIONAL_REPRESENTATION('',(#209),#235);
#209 = B_SPLINE_CURVE_WITH_KNOTS('',3,(#210,#211,#212,#213,#214,#215,
    #216,#217,#218,#219,#220,#221,#222,#223,#224,#225,#226,#227,#228,
    #229,#230,#231,#232,#233,#234),.UNSPECIFIED.,.F.,.F.,(4,1,1,1,1,1,1,
    1,1,1,1,1,1,1,1,1,1,1,1,1,1,1,4),(0.,4.545454545455E-02,
    9.090909090909E-02,0.136363636364,0.181818181818,0.227272727273,
    0.272727272727,0.318181818182,0.363636363636,0.409090909091,
    0.454545454545,0.5,0.545454545455,0.590909090909,0.636363636364,
    0.681818181818,0.727272727273,0.772727272727,0.818181818182,
    0.863636363636,0.909090909091,0.954545454545,1.),
  .QUASI_UNIFORM_KNOTS.);
#210 = CARTESIAN_POINT('',(0.887698448445,1.380033992033E-02));
#211 = CARTESIAN_POINT('',(0.88586707796,1.32632230623E-02));
#212 = CARTESIAN_POINT('',(0.881990304308,1.219686255442E-02));
#213 = CARTESIAN_POINT('',(0.875296855485,1.062759586075E-02));
#214 = CARTESIAN_POINT('',(0.867520306149,9.094482526492E-03));
#215 = CARTESIAN_POINT('',(0.858346020691,7.606114876401E-03));
#216 = CARTESIAN_POINT('',(0.847335628954,6.173983681726E-03));
#217 = CARTESIAN_POINT('',(0.833846473973,4.814155399994E-03));
#218 = CARTESIAN_POINT('',(0.816915658388,3.549444399957E-03));
#219 = CARTESIAN_POINT('',(0.795075115781,2.412517527567E-03));
#220 = CARTESIAN_POINT('',(0.766131159317,1.448496181984E-03));
#221 = CARTESIAN_POINT('',(0.727197053798,7.102637961646E-04));
#222 = CARTESIAN_POINT('',(0.676208608824,2.237071450624E-04));
#223 = CARTESIAN_POINT('',(0.615596342836,-7.299187443338E-05));
#224 = CARTESIAN_POINT('',(0.551306323122,-2.846240268548E-04));
#225 = CARTESIAN_POINT('',(0.487605213801,-4.580355972617E-04));
#226 = CARTESIAN_POINT('',(0.426720198291,-5.783661386776E-04));
#227 = CARTESIAN_POINT('',(0.370524096241,-5.928896184621E-04));
#228 = CARTESIAN_POINT('',(0.321039323318,-4.332163403993E-04));
#229 = CARTESIAN_POINT('',(0.279621402079,-5.181425123641E-05));
#230 = CARTESIAN_POINT('',(0.24615210337,5.529248528664E-04));
#231 = CARTESIAN_POINT('',(0.219438525274,1.349472537159E-03));
#232 = CARTESIAN_POINT('',(0.198004525161,2.297070842808E-03));
#233 = CARTESIAN_POINT('',(0.186444245724,3.007372337968E-03));
#234 = CARTESIAN_POINT('',(0.18113488687,3.376272566993E-03));
#235 = ( GEOMETRIC_REPRESENTATION_CONTEXT(2) 
PARAMETRIC_REPRESENTATION_CONTEXT() REPRESENTATION_CONTEXT('2D SPACE',''
  ) );
#236 = PCURVE('',#143,#237);
#237 = DEFINITIONAL_REPRESENTATION('',(#238),#264);
#238 = B_SPLINE_CURVE_WITH_KNOTS('',3,(#239,#240,#241,#242,#243,#244,
    #245,#246,#247,#248,#249,#250,#251,#252,#253,#254,#255,#256,#257,
    #258,#259,#260,#261,#262,#263),.UNSPECIFIED.,.F.,.F.,(4,1,1,1,1,1,1,
    1,1,1,1,1,1,1,1,1,1,1,1,1,1,1,4),(0.,4.545454545455E-02,
    9.090909090909E-02,0.136363636364,0.181818181818,0.227272727273,
    0.272727272727,0.318181818182,0.363636363636,0.409090909091,
    0.454545454545,0.5,0.545454545455,0.590909090909,0.636363636364,
    0.681818181818,0.727272727273,0.772727272727,0.818181818182,
    0.863636363636,0.909090909091,0.954545454545,1.),
  .QUASI_UNIFORM_KNOTS.);
#239 = CARTESIAN_POINT('',(0.101901430819,8.262176045346E-03));
#240 = CARTESIAN_POINT('',(0.104138766384,7.796432748299E-03));
#241 = CARTESIAN_POINT('',(0.108899102015,6.870150266444E-03));
#242 = CARTESIAN_POINT('',(0.117252879692,5.501485843233E-03));
#243 = CARTESIAN_POINT('',(0.127127208871,4.158004740243E-03));
#244 = CARTESIAN_POINT('',(0.139000878922,2.846661275858E-03));
#245 = CARTESIAN_POINT('',(0.153540843314,1.577347962973E-03));
#246 = CARTESIAN_POINT('',(0.171705442143,3.6488302747E-04));
#247 = CARTESIAN_POINT('',(0.194843014173,-7.682069023725E-04));
#248 = CARTESIAN_POINT('',(0.224708966033,-1.787993622903E-03));
#249 = CARTESIAN_POINT('',(0.263085264566,-2.647456969814E-03));
#250 = CARTESIAN_POINT('',(0.310547741072,-3.296365953244E-03));
#251 = CARTESIAN_POINT('',(0.365327376746,-3.707576227003E-03));
#252 = CARTESIAN_POINT('',(0.42455735629,-3.889563086124E-03));
#253 = CARTESIAN_POINT('',(0.486312564669,-3.868082321266E-03));
#254 = CARTESIAN_POINT('',(0.549853853546,-3.666757345978E-03));
#255 = CARTESIAN_POINT('',(0.614699977524,-3.297017688412E-03));
#256 = CARTESIAN_POINT('',(0.679000782389,-2.746425097792E-03));
#257 = CARTESIAN_POINT('',(0.737181584676,-1.965207813785E-03));
#258 = CARTESIAN_POINT('',(0.782919383533,-9.167121991332E-04));
#259 = CARTESIAN_POINT('',(0.81616372517,3.55666774981E-04));
#260 = CARTESIAN_POINT('',(0.840387747111,1.782083738758E-03));
#261 = CARTESIAN_POINT('',(0.858627215913,3.310130342177E-03));
#262 = CARTESIAN_POINT('',(0.867955311363,4.377519171323E-03));
#263 = CARTESIAN_POINT('',(0.872262844594,4.91748679507E-03));
#264 = ( GEOMETRIC_REPRESENTATION_CONTEXT(2) 
PARAMETRIC_REPRESENTATION_CONTEXT() REPRESENTATION_CONTEXT('2D SPACE',''
  ) );
#265 = ORIENTED_EDGE('',*,*,#266,.T.);
#266 = EDGE_CURVE('',#200,#22,#267,.T.);
#267 = SURFACE_CURVE('',#268,(#272,#280),.PCURVE_S1.);
#268 = B_SPLINE_CURVE_WITH_KNOTS('',2,(#269,#270,#271),.UNSPECIFIED.,.F.
  ,.F.,(3,3),(0.,1.),.PIECEWISE_BEZIER_KNOTS.);
#269 = CARTESIAN_POINT('',(0.177090663463,-4.189720726572E-03,
    0.996072806418));
#270 = CARTESIAN_POINT('',(0.304662500816,-4.74432231466E-03,
    -1.508341726927E-03));
#271 = CARTESIAN_POINT('',(0.438652411103,-7.906643984218E-03,
    -0.998220081131));
#272 = PCURVE('',#79,#273);
#273 = DEFINITIONAL_REPRESENTATION('',(#274),#279);
#274 = B_SPLINE_CURVE_WITH_KNOTS('',3,(#275,#276,#277,#278),
  .UNSPECIFIED.,.F.,.F.,(4,4),(0.,1.),.PIECEWISE_BEZIER_KNOTS.);
#275 = CARTESIAN_POINT('',(0.18113488687,3.376272566993E-03));
#276 = CARTESIAN_POINT('',(0.10270473584,0.333076340851));
#277 = CARTESIAN_POINT('',(8.285375792891E-02,0.66321203635));
#278 = CARTESIAN_POINT('',(6.355972175125E-02,0.992485228955));
#279 = ( GEOMETRIC_REPRESENTATION_CONTEXT(2) 
PARAMETRIC_REPRESENTATION_CONTEXT() REPRESENTATION_CONTEXT('2D SPACE',''
  ) );
#280 = PCURVE('',#143,#281);
#281 = DEFINITIONAL_REPRESENTATION('',(#282),#287);
#282 = B_SPLINE_CURVE_WITH_KNOTS('',3,(#283,#284,#285,#286),
  .UNSPECIFIED.,.F.,.F.,(4,4),(0.,1.),.PIECEWISE_BEZIER_KNOTS.);
#283 = CARTESIAN_POINT('',(0.872262844594,4.91748679507E-03));
#284 = CARTESIAN_POINT('',(0.923142475379,0.334844727899));
#285 = CARTESIAN_POINT('',(0.938105258097,0.663073276818));
#286 = CARTESIAN_POINT('',(0.952881635784,0.99551016482));
#287 = ( GEOMETRIC_REPRESENTATION_CONTEXT(2) 
PARAMETRIC_REPRESENTATION_CONTEXT() REPRESENTATION_CONTEXT('2D SPACE',''
  ) );
#288 = ADVANCED_FACE('',(#289),#143,.T.);
#289 = FACE_BOUND('',#290,.F.);
#290 = EDGE_LOOP('',(#291,#292,#293,#294));
#291 = ORIENTED_EDGE('',*,*,#125,.T.);
#292 = ORIENTED_EDGE('',*,*,#266,.F.);
#293 = ORIENTED_EDGE('',*,*,#199,.F.);
#294 = ORIENTED_EDGE('',*,*,#174,.F.);
#295 = ( GEOMETRIC_REPRESENTATION_CONTEXT(3) 
GLOBAL_UNCERTAINTY_ASSIGNED_CONTEXT((#299)) GLOBAL_UNIT_ASSIGNED_CONTEXT
((#296,#297,#298)) REPRESENTATION_CONTEXT('Context #1',
  '3D Context with UNIT and UNCERTAINTY') );
#296 = ( LENGTH_UNIT() NAMED_UNIT(*) SI_UNIT(.MILLI.,.METRE.) );
#297 = ( NAMED_UNIT(*) PLANE_ANGLE_UNIT() SI_UNIT($,.RADIAN.) );
#298 = ( NAMED_UNIT(*) SI_UNIT($,.STERADIAN.) SOLID_ANGLE_UNIT() );
#299 = UNCERTAINTY_MEASURE_WITH_UNIT(LENGTH_MEASURE(0.1),#296,
  'distance_accuracy_value','confusion accuracy');
#300 = PRODUCT_RELATED_PRODUCT_CATEGORY('detail',$,(#7));
#301 = PRODUCT_CATEGORY_RELATIONSHIP('','',#302,#300);
#302 = PRODUCT_CATEGORY('part',$);
#303 = CC_DESIGN_PERSON_AND_ORGANIZATION_ASSIGNMENT(#304,#307,(#6,#5));
#304 = PERSON_AND_ORGANIZATION(#305,#306);
#305 = PERSON('IP127.0.1,workstation-5','','workstation-5,,,',$,$,$);
#306 = ORGANIZATION('IP127.0.1','Unspecified','');
#307 = PERSON_AND_ORGANIZATION_ROLE('creator');
#308 = CC_DESIGN_PERSON_AND_ORGANIZATION_ASSIGNMENT(#304,#309,(#7));
#309 = PERSON_AND_ORGANIZATION_ROLE('design_owner');
#310 = CC_DESIGN_PERSON_AND_ORGANIZATION_ASSIGNMENT(#304,#311,(#6));
#311 = PERSON_AND_ORGANIZATION_ROLE('design_supplier');
#312 = CC_DESIGN_PERSON_AND_ORGANIZATION_ASSIGNMENT(#304,#313,(#314));
#313 = PERSON_AND_ORGANIZATION_ROLE('classification_officer');
#314 = SECURITY_CLASSIFICATION('','',#315);
#315 = SECURITY_CLASSIFICATION_LEVEL('unclassified');
#316 = CC_DESIGN_SECURITY_CLASSIFICATION(#314,(#6));
#317 = CC_DESIGN_DATE_AND_TIME_ASSIGNMENT(#318,#322,(#5));
#318 = DATE_AND_TIME(#319,#320);
#319 = CALENDAR_DATE(2024,3,12);
#320 = LOCAL_TIME(16,7,$,#321);
#321 = COORDINATED_UNIVERSAL_TIME_OFFSET(5,$,.BEHIND.);
#322 = DATE_TIME_ROLE('creation_date');
#323 = CC_DESIGN_DATE_AND_TIME_ASSIGNMENT(#318,#324,(#314));
#324 = DATE_TIME_ROLE('classification_date');
#325 = CC_DESIGN_APPROVAL(#326,(#6,#5,#314));
#326 = APPROVAL(#327,'');
#327 = APPROVAL_STATUS('not_yet_approved');
#328 = APPROVAL_PERSON_ORGANIZATION(#304,#326,#329);
#329 = APPROVAL_ROLE('approver');
#330 = APPROVAL_DATE_TIME(#318,#326);
ENDSEC;
END-ISO-10303-21;
