ISO-10303-21;
HEADER;
FILE_DESCRIPTION(('Open CASCADE Model'),'2;1');
FILE_NAME('Open CASCADE Shape Model','2024-12-03T06:30:15',('Author'),(
    'Open CASCADE'),'Open CASCADE STEP processor 7.5','Open CASCADE 7.5'
  ,'Unknown');
FILE_SCHEMA(('CONFIG_CONTROL_DESIGN'));
ENDSEC;
DATA;
#1 = APPLICATION_PROTOCOL_DEFINITION('international standard',
  'config_control_design',1994,#2);
#2 = APPLICATION_CONTEXT(
'configuration controlled 3D designs of mechanical parts and assemblies'
  );
#3 = SHAPE_DEFINITION_REPRESENTATION(#4,#10);
#4 = PRODUCT_DEFINITION_SHAPE('','',#5);
#5 = PRODUCT_DEFINITION('design','',#6,#9);
#6 = PRODUCT_DEFINITION_FORMATION_WITH_SPECIFIED_SOURCE('','',#7,
  .NOT_KNOWN.);
#7 = PRODUCT('Open CASCADE STEP translator 7.5 6698',
  'Open CASCADE STEP translator 7.5 6698','',(#8));
#8 = MECHANICAL_CONTEXT('',#2,'mechanical');
#9 = DESIGN_CONTEXT('',#2,'design');
#10 = ADVANCED_BREP_SHAPE_REPRESENTATION('',(#11,#15),#266);
#11 = AXIS2_PLACEMENT_3D('',#12,#13,#14);
#12 = CARTESIAN_POINT('',(0.,0.,0.));
#13 = DIRECTION('',(0.,0.,1.));
#14 = DIRECTION('',(1.,0.,-0.));
#15 = MANIFOLD_SOLID_BREP('',#16);
#16 = CLOSED_SHELL('',(#17,#198,#228,#261));
#17 = ADVANCED_FACE('',(#18),#32,.T.);
#18 = FACE_BOUND('',#19,.F.);
#19 = EDGE_LOOP('',(#20,#81,#128,#153));
#20 = ORIENTED_EDGE('',*,*,#21,.T.);
#21 = EDGE_CURVE('',#22,#24,#26,.T.);
#22 = VERTEX_POINT('',#23);
#23 = CARTESIAN_POINT('',(0.647251327833,-5.388216736416E-03,
    0.997647752364));
#24 = VERTEX_POINT('',#25);
#25 = CARTESIAN_POINT('',(0.644719968239,-4.447670343022E-03,
    -0.999800384045));
#26 = SURFACE_CURVE('',#27,(#31,#56),.PCURVE_S1.);
#27 = B_SPLINE_CURVE_WITH_KNOTS('',2,(#28,#29,#30),.UNSPECIFIED.,.F.,.F.
  ,(3,3),(0.,1.),.PIECEWISE_BEZIER_KNOTS.);
#28 = CARTESIAN_POINT('',(0.647251327833,-5.388216736416E-03,
    0.997647752364));
#29 = CARTESIAN_POINT('',(0.645605631463,-4.778258882938E-03,
    -1.09997994256E-03));
#30 = CARTESIAN_POINT('',(0.644719968239,-4.447670343022E-03,
    -0.999800384045));
#31 = PCURVE('',#32,#49);
#32 = B_SPLINE_SURFACE_WITH_KNOTS('',3,3,(
    (#33,#34,#35,#36)
    ,(#37,#38,#39,#40)
    ,(#41,#42,#43,#44)
    ,(#45,#46,#47,#48
    )),.UNSPECIFIED.,.F.,.F.,.F.,(4,4),(4,4),(0.,1.),(0.,1.),
  .PIECEWISE_BEZIER_KNOTS.);
#33 = CARTESIAN_POINT('',(-0.68837416172,1.349926833063E-02,
    -1.0460242033));
#34 = CARTESIAN_POINT('',(-0.686493937674,1.390728762618E-02,
    -0.343151556547));
#35 = CARTESIAN_POINT('',(-0.687533521233,1.587885407979E-02,
    0.34513948314));
#36 = CARTESIAN_POINT('',(-0.68446791172,1.960278302431E-02,1.0457726717
    ));
#37 = CARTESIAN_POINT('',(-0.718828783804,-0.887523590649,
    -1.040784996722));
#38 = CARTESIAN_POINT('',(-0.717008897256,-0.894218633942,
    -0.341105130368));
#39 = CARTESIAN_POINT('',(-0.714242341751,-0.88589722006,0.354204109948)
  );
#40 = CARTESIAN_POINT('',(-0.715735507704,-0.891335013896,1.052861841183
    ));
#41 = CARTESIAN_POINT('',(0.713894747202,-0.908007869007,-1.038819732668
    ));
#42 = CARTESIAN_POINT('',(0.716852319021,-0.898113754205,-0.350811205273
    ));
#43 = CARTESIAN_POINT('',(0.71145452064,-0.891584438848,0.350478360113)
  );
#44 = CARTESIAN_POINT('',(0.721006174271,-0.890918467933,1.053163123855)
  );
#45 = CARTESIAN_POINT('',(0.68809068203,1.081372145563E-02,-1.0401648283
    ));
#46 = CARTESIAN_POINT('',(0.686039522334,1.922241117841E-03,
    -0.345052831204));
#47 = CARTESIAN_POINT('',(0.689277557828,1.11306282374E-02,
    0.361206359742));
#48 = CARTESIAN_POINT('',(0.69053208828,1.838207989931E-02,1.0447961092)
  );
#49 = DEFINITIONAL_REPRESENTATION('',(#50),#55);
#50 = B_SPLINE_CURVE_WITH_KNOTS('',3,(#51,#52,#53,#54),.UNSPECIFIED.,.F.
  ,.F.,(4,4),(0.,1.),.PIECEWISE_BEZIER_KNOTS.);
#51 = CARTESIAN_POINT('',(0.991487417363,0.976890668725));
#52 = CARTESIAN_POINT('',(0.992608672951,0.652937458616));
#53 = CARTESIAN_POINT('',(0.993697023511,0.338491170298));
#54 = CARTESIAN_POINT('',(0.994801451431,1.939981048061E-02));
#55 = ( GEOMETRIC_REPRESENTATION_CONTEXT(2) 
PARAMETRIC_REPRESENTATION_CONTEXT() REPRESENTATION_CONTEXT('2D SPACE',''
  ) );
#56 = PCURVE('',#57,#74);
#57 = B_SPLINE_SURFACE_WITH_KNOTS('',3,3,(
    (#58,#59,#60,#61)
    ,(#62,#63,#64,#65)
    ,(#66,#67,#68,#69)
    ,(#70,#71,#72,#73
    )),.UNSPECIFIED.,.F.,.F.,.F.,(4,4),(4,4),(0.,1.),(0.,1.),
  .PIECEWISE_BEZIER_KNOTS.);
#58 = CARTESIAN_POINT('',(0.673620760441,-3.295680042356E-03,
    -1.048806905746));
#59 = CARTESIAN_POINT('',(0.671662193803,-7.78369464861E-03,
    -0.340906562881));
#60 = CARTESIAN_POINT('',(0.681309089196,7.263017472545E-03,
    0.344134806965));
#61 = CARTESIAN_POINT('',(0.673620760441,-5.737086292356E-03,
    1.048849344254));
#62 = CARTESIAN_POINT('',(0.685748323085,0.853813344723,-1.043316579546)
  );
#63 = CARTESIAN_POINT('',(0.679674298223,0.857051590359,-0.363429679026)
  );
#64 = CARTESIAN_POINT('',(0.665455204075,0.849068654634,0.360864005839)
  );
#65 = CARTESIAN_POINT('',(0.685743034711,0.874691086024,1.037277583187)
  );
#66 = CARTESIAN_POINT('',(-0.700413917244,0.859518491731,-1.046638496366
    ));
#67 = CARTESIAN_POINT('',(-0.686096760624,0.841342185462,-0.337025639809
    ));
#68 = CARTESIAN_POINT('',(-0.671565669539,0.860917940805,0.336467322327)
  );
#69 = CARTESIAN_POINT('',(-0.700699142525,0.863353956038,1.056042258441)
  );
#70 = CARTESIAN_POINT('',(-0.665734708309,-1.623513363302E-02,
    -1.045877218246));
#71 = CARTESIAN_POINT('',(-0.676223044701,-1.704517649646E-03,
    -0.350483104358));
#72 = CARTESIAN_POINT('',(-0.666690483477,-1.07040472765E-02,
    0.354326423387));
#73 = CARTESIAN_POINT('',(-0.664269864559,-1.379372738302E-02,
    1.043966531754));
#74 = DEFINITIONAL_REPRESENTATION('',(#75),#80);
#75 = B_SPLINE_CURVE_WITH_KNOTS('',3,(#76,#77,#78,#79),.UNSPECIFIED.,.F.
  ,.F.,(4,4),(0.,1.),.PIECEWISE_BEZIER_KNOTS.);
#76 = CARTESIAN_POINT('',(-3.344480244329E-04,0.975882787228));
#77 = CARTESIAN_POINT('',(-3.928579733903E-04,0.660595165532));
#78 = CARTESIAN_POINT('',(-4.527942695994E-04,0.337068563946));
#79 = CARTESIAN_POINT('',(-5.109557796376E-04,2.312197605313E-02));
#80 = ( GEOMETRIC_REPRESENTATION_CONTEXT(2) 
PARAMETRIC_REPRESENTATION_CONTEXT() REPRESENTATION_CONTEXT('2D SPACE',''
  ) );
#81 = ORIENTED_EDGE('',*,*,#82,.F.);
#82 = EDGE_CURVE('',#83,#24,#85,.T.);
#83 = VERTEX_POINT('',#84);
#84 = CARTESIAN_POINT('',(-0.643251240253,-1.826480011611E-03,
    -0.997934410969));
#85 = SURFACE_CURVE('',#86,(#92,#102),.PCURVE_S1.);
#86 = B_SPLINE_CURVE_WITH_KNOTS('',4,(#87,#88,#89,#90,#91),
  .UNSPECIFIED.,.F.,.F.,(5,5),(0.,1.),.PIECEWISE_BEZIER_KNOTS.);
#87 = CARTESIAN_POINT('',(-0.643251240253,-1.826480011611E-03,
    -0.997934410969));
#88 = CARTESIAN_POINT('',(-0.661542205341,-0.497201320183,
    -0.987999220489));
#89 = CARTESIAN_POINT('',(-1.361114037398E-02,-1.066409153627,
    -1.003721026159));
#90 = CARTESIAN_POINT('',(0.681482484088,-0.497246734454,-0.996702742803
    ));
#91 = CARTESIAN_POINT('',(0.644719968239,-4.447670343022E-03,
    -0.999800384045));
#92 = PCURVE('',#32,#93);
#93 = DEFINITIONAL_REPRESENTATION('',(#94),#101);
#94 = B_SPLINE_CURVE_WITH_KNOTS('',5,(#95,#96,#97,#98,#99,#100),
  .UNSPECIFIED.,.F.,.F.,(6,6),(0.,1.),.PIECEWISE_BEZIER_KNOTS.);
#95 = CARTESIAN_POINT('',(5.431277502569E-03,2.283172025628E-02));
#96 = CARTESIAN_POINT('',(0.153626255846,2.535565400128E-02));
#97 = CARTESIAN_POINT('',(0.477524637108,2.055717842381E-02));
#98 = CARTESIAN_POINT('',(0.525928128211,1.873005527978E-02));
#99 = CARTESIAN_POINT('',(0.849688789728,2.015504641896E-02));
#100 = CARTESIAN_POINT('',(0.994801451431,1.939981048041E-02));
#101 = ( GEOMETRIC_REPRESENTATION_CONTEXT(2) 
PARAMETRIC_REPRESENTATION_CONTEXT() REPRESENTATION_CONTEXT('2D SPACE',''
  ) );
#102 = PCURVE('',#103,#120);
#103 = B_SPLINE_SURFACE_WITH_KNOTS('',3,3,(
    (#104,#105,#106,#107)
    ,(#108,#109,#110,#111)
    ,(#112,#113,#114,#115)
    ,(#116,#117,#118,#119
    )),.UNSPECIFIED.,.F.,.F.,.F.,(4,4),(4,4),(0.,1.),(0.,1.),
  .PIECEWISE_BEZIER_KNOTS.);
#104 = CARTESIAN_POINT('',(0.698620319366,-0.676962673664,
    -0.998779535294));
#105 = CARTESIAN_POINT('',(0.701013378103,-0.216497438183,
    -1.001248238915));
#106 = CARTESIAN_POINT('',(0.690103779061,0.239975209312,-0.991174753536
    ));
#107 = CARTESIAN_POINT('',(0.692272663116,0.689736545086,-0.999333620071
    ));
#108 = CARTESIAN_POINT('',(0.244890135963,-0.677828652269,
    -0.999252209543));
#109 = CARTESIAN_POINT('',(0.233726460674,-0.223301114968,
    -0.987087646943));
#110 = CARTESIAN_POINT('',(0.249164012437,0.218904963843,-1.002369195522
    ));
#111 = CARTESIAN_POINT('',(0.236762576669,0.688599139723,-0.993467043129
    ));
#112 = CARTESIAN_POINT('',(-0.214991139507,-0.683540646039,
    -1.000632044975));
#113 = CARTESIAN_POINT('',(-0.208859485725,-0.236590758543,
    -1.00533978429));
#114 = CARTESIAN_POINT('',(-0.218035035208,0.238209197635,
    -0.991762799952));
#115 = CARTESIAN_POINT('',(-0.219730774635,0.678217800628,-1.0027919807)
  );
#116 = CARTESIAN_POINT('',(-0.666614055634,-0.678915798664,
    -1.004071474075));
#117 = CARTESIAN_POINT('',(-0.668362910658,-0.219296127768,
    -0.990057718133));
#118 = CARTESIAN_POINT('',(-0.673540348745,0.229555857038,
    -1.007791341753));
#119 = CARTESIAN_POINT('',(-0.669055461884,0.691689670086,
    -0.993323564529));
#120 = DEFINITIONAL_REPRESENTATION('',(#121),#127);
#121 = B_SPLINE_CURVE_WITH_KNOTS('',4,(#122,#123,#124,#125,#126),
  .UNSPECIFIED.,.F.,.F.,(5,5),(0.,1.),.PIECEWISE_BEZIER_KNOTS.);
#122 = CARTESIAN_POINT('',(0.980332767873,0.494905761456));
#123 = CARTESIAN_POINT('',(0.995294391354,0.131820996666));
#124 = CARTESIAN_POINT('',(0.521061231623,-0.275895704006));
#125 = CARTESIAN_POINT('',(1.34156178443E-02,0.128820403491));
#126 = CARTESIAN_POINT('',(3.73553975829E-02,0.489968352606));
#127 = ( GEOMETRIC_REPRESENTATION_CONTEXT(2) 
PARAMETRIC_REPRESENTATION_CONTEXT() REPRESENTATION_CONTEXT('2D SPACE',''
  ) );
#128 = ORIENTED_EDGE('',*,*,#129,.T.);
#129 = EDGE_CURVE('',#83,#130,#132,.T.);
#130 = VERTEX_POINT('',#131);
#131 = CARTESIAN_POINT('',(-0.643909523884,-2.001861711809E-03,
    1.000835448503));
#132 = SURFACE_CURVE('',#133,(#137,#145),.PCURVE_S1.);
#133 = B_SPLINE_CURVE_WITH_KNOTS('',2,(#134,#135,#136),.UNSPECIFIED.,.F.
  ,.F.,(3,3),(0.,1.),.PIECEWISE_BEZIER_KNOTS.);
#134 = CARTESIAN_POINT('',(-0.643251240253,-1.826480011611E-03,
    -0.997934410969));
#135 = CARTESIAN_POINT('',(-0.645821383992,-2.659087845989E-04,
    1.44501473755E-03));
#136 = CARTESIAN_POINT('',(-0.643909523884,-2.001861711809E-03,
    1.000835448503));
#137 = PCURVE('',#32,#138);
#138 = DEFINITIONAL_REPRESENTATION('',(#139),#144);
#139 = B_SPLINE_CURVE_WITH_KNOTS('',3,(#140,#141,#142,#143),
  .UNSPECIFIED.,.F.,.F.,(4,4),(0.,1.),.PIECEWISE_BEZIER_KNOTS.);
#140 = CARTESIAN_POINT('',(5.431277502569E-03,2.283172025628E-02));
#141 = CARTESIAN_POINT('',(6.195641181597E-03,0.339106094793));
#142 = CARTESIAN_POINT('',(6.9745309944E-03,0.661391016403));
#143 = CARTESIAN_POINT('',(7.741180451416E-03,0.978611188109));
#144 = ( GEOMETRIC_REPRESENTATION_CONTEXT(2) 
PARAMETRIC_REPRESENTATION_CONTEXT() REPRESENTATION_CONTEXT('2D SPACE',''
  ) );
#145 = PCURVE('',#57,#146);
#146 = DEFINITIONAL_REPRESENTATION('',(#147),#152);
#147 = B_SPLINE_CURVE_WITH_KNOTS('',3,(#148,#149,#150,#151),
  .UNSPECIFIED.,.F.,.F.,(4,4),(0.,1.),.PIECEWISE_BEZIER_KNOTS.);
#148 = CARTESIAN_POINT('',(0.995040966372,2.282793680049E-02));
#149 = CARTESIAN_POINT('',(0.995288265926,0.341842490417));
#150 = CARTESIAN_POINT('',(0.995533004035,0.657552799073));
#151 = CARTESIAN_POINT('',(0.995782292432,0.979132944423));
#152 = ( GEOMETRIC_REPRESENTATION_CONTEXT(2) 
PARAMETRIC_REPRESENTATION_CONTEXT() REPRESENTATION_CONTEXT('2D SPACE',''
  ) );
#153 = ORIENTED_EDGE('',*,*,#154,.T.);
#154 = EDGE_CURVE('',#130,#22,#155,.T.);
#155 = SURFACE_CURVE('',#156,(#162,#172),.PCURVE_S1.);
#156 = B_SPLINE_CURVE_WITH_KNOTS('',4,(#157,#158,#159,#160,#161),
  .UNSPECIFIED.,.F.,.F.,(5,5),(0.,1.),.PIECEWISE_BEZIER_KNOTS.);
#157 = CARTESIAN_POINT('',(-0.643909523884,-2.001861711809E-03,
    1.000835448503));
#158 = CARTESIAN_POINT('',(-0.65516077684,-0.497080168734,1.009876269373
    ));
#159 = CARTESIAN_POINT('',(-1.462144127262E-02,-1.049534002258,
    0.993443083861));
#160 = CARTESIAN_POINT('',(0.682112138306,-0.499124480932,0.998655036221
    ));
#161 = CARTESIAN_POINT('',(0.647251327833,-5.388216736416E-03,
    0.997647752364));
#162 = PCURVE('',#32,#163);
#163 = DEFINITIONAL_REPRESENTATION('',(#164),#171);
#164 = B_SPLINE_CURVE_WITH_KNOTS('',5,(#165,#166,#167,#168,#169,#170),
  .UNSPECIFIED.,.F.,.F.,(6,6),(0.,1.),.PIECEWISE_BEZIER_KNOTS.);
#165 = CARTESIAN_POINT('',(7.741180451416E-03,0.978611188108));
#166 = CARTESIAN_POINT('',(0.155081354086,0.980391129259));
#167 = CARTESIAN_POINT('',(0.473605624442,0.975015106343));
#168 = CARTESIAN_POINT('',(0.526698578806,0.972567127745));
#169 = CARTESIAN_POINT('',(0.843755082435,0.975793162671));
#170 = CARTESIAN_POINT('',(0.991487417363,0.976890668725));
#171 = ( GEOMETRIC_REPRESENTATION_CONTEXT(2) 
PARAMETRIC_REPRESENTATION_CONTEXT() REPRESENTATION_CONTEXT('2D SPACE',''
  ) );
#172 = PCURVE('',#173,#190);
#173 = B_SPLINE_SURFACE_WITH_KNOTS('',3,3,(
    (#174,#175,#176,#177)
    ,(#178,#179,#180,#181)
    ,(#182,#183,#184,#185)
    ,(#186,#187,#188,#189
    )),.UNSPECIFIED.,.F.,.F.,.F.,(4,4),(4,4),(0.,1.),(0.,1.),
  .PIECEWISE_BEZIER_KNOTS.);
#174 = CARTESIAN_POINT('',(-0.671467721462,-0.678074061871,
    1.000024914742));
#175 = CARTESIAN_POINT('',(-0.674384444796,-0.215590559313,
    1.002500317123));
#176 = CARTESIAN_POINT('',(-0.668961895823,0.232093465496,1.000773597991
    ));
#177 = CARTESIAN_POINT('',(-0.668049752712,0.689113438129,1.000304102898
    ));
#178 = CARTESIAN_POINT('',(-0.230367128605,-0.678848314851,
    0.995020378533));
#179 = CARTESIAN_POINT('',(-0.220196687617,-0.231563198232,
    1.004228785524));
#180 = CARTESIAN_POINT('',(-0.222720877048,0.236912568181,0.994156333485
    ));
#181 = CARTESIAN_POINT('',(-0.224185668019,0.684857738378,0.998100736429
    ));
#182 = CARTESIAN_POINT('',(0.223812856391,-0.67800318964,1.000209037443)
  );
#183 = CARTESIAN_POINT('',(0.219737269138,-0.226988811351,0.999815638542
    ));
#184 = CARTESIAN_POINT('',(0.228066077399,0.226825730457,1.003653378613)
  );
#185 = CARTESIAN_POINT('',(0.227355755681,0.687230537343,0.996255493786)
  );
#186 = CARTESIAN_POINT('',(0.671305716038,-0.682956874371,0.998318314552
    ));
#187 = CARTESIAN_POINT('',(0.673021523141,-0.221011564778,1.004945900748
    ));
#188 = CARTESIAN_POINT('',(0.671671416615,0.230485568718,1.002995951685)
  );
#189 = CARTESIAN_POINT('',(0.671305716038,0.688625156879,0.999840140343)
  );
#190 = DEFINITIONAL_REPRESENTATION('',(#191),#197);
#191 = B_SPLINE_CURVE_WITH_KNOTS('',4,(#192,#193,#194,#195,#196),
  .UNSPECIFIED.,.F.,.F.,(5,5),(0.,1.),.PIECEWISE_BEZIER_KNOTS.);
#192 = CARTESIAN_POINT('',(2.032305400405E-02,0.493185834327));
#193 = CARTESIAN_POINT('',(1.367504826371E-02,0.129568378406));
#194 = CARTESIAN_POINT('',(0.492636688255,-0.266904835551));
#195 = CARTESIAN_POINT('',(1.007238097874,0.131768981823));
#196 = CARTESIAN_POINT('',(0.98149329077,0.493067438575));
#197 = ( GEOMETRIC_REPRESENTATION_CONTEXT(2) 
PARAMETRIC_REPRESENTATION_CONTEXT() REPRESENTATION_CONTEXT('2D SPACE',''
  ) );
#198 = ADVANCED_FACE('',(#199),#173,.T.);
#199 = FACE_BOUND('',#200,.T.);
#200 = EDGE_LOOP('',(#201,#227));
#201 = ORIENTED_EDGE('',*,*,#202,.T.);
#202 = EDGE_CURVE('',#22,#130,#203,.T.);
#203 = SURFACE_CURVE('',#204,(#209,#217),.PCURVE_S1.);
#204 = B_SPLINE_CURVE_WITH_KNOTS('',3,(#205,#206,#207,#208),
  .UNSPECIFIED.,.F.,.F.,(4,4),(0.,1.),.PIECEWISE_BEZIER_KNOTS.);
#205 = CARTESIAN_POINT('',(0.647251327833,-5.388216736416E-03,
    0.997647752364));
#206 = CARTESIAN_POINT('',(0.623354715174,0.862126704961,1.001416222977)
  );
#207 = CARTESIAN_POINT('',(-0.614181531457,0.864565692987,0.999007582926
    ));
#208 = CARTESIAN_POINT('',(-0.643909523884,-2.001861711809E-03,
    1.000835448503));
#209 = PCURVE('',#173,#210);
#210 = DEFINITIONAL_REPRESENTATION('',(#211),#216);
#211 = B_SPLINE_CURVE_WITH_KNOTS('',3,(#212,#213,#214,#215),
  .UNSPECIFIED.,.F.,.F.,(4,4),(0.,1.),.PIECEWISE_BEZIER_KNOTS.);
#212 = CARTESIAN_POINT('',(0.98149329077,0.493067438575));
#213 = CARTESIAN_POINT('',(0.963997028427,1.127699296933));
#214 = CARTESIAN_POINT('',(3.938030853998E-02,1.129623582734));
#215 = CARTESIAN_POINT('',(2.032305400405E-02,0.493185834327));
#216 = ( GEOMETRIC_REPRESENTATION_CONTEXT(2) 
PARAMETRIC_REPRESENTATION_CONTEXT() REPRESENTATION_CONTEXT('2D SPACE',''
  ) );
#217 = PCURVE('',#57,#218);
#218 = DEFINITIONAL_REPRESENTATION('',(#219),#226);
#219 = B_SPLINE_CURVE_WITH_KNOTS('',5,(#220,#221,#222,#223,#224,#225),
  .UNSPECIFIED.,.F.,.F.,(6,6),(0.,1.),.PIECEWISE_BEZIER_KNOTS.);
#220 = CARTESIAN_POINT('',(-3.344480244328E-04,0.975882787228));
#221 = CARTESIAN_POINT('',(0.197311433019,0.979611769673));
#222 = CARTESIAN_POINT('',(0.454811415974,0.978734162946));
#223 = CARTESIAN_POINT('',(0.536191465145,0.976787299069));
#224 = CARTESIAN_POINT('',(0.796411759945,0.975516318314));
#225 = CARTESIAN_POINT('',(0.995782292432,0.979132944423));
#226 = ( GEOMETRIC_REPRESENTATION_CONTEXT(2) 
PARAMETRIC_REPRESENTATION_CONTEXT() REPRESENTATION_CONTEXT('2D SPACE',''
  ) );
#227 = ORIENTED_EDGE('',*,*,#154,.T.);
#228 = ADVANCED_FACE('',(#229),#57,.T.);
#229 = FACE_BOUND('',#230,.T.);
#230 = EDGE_LOOP('',(#231,#258,#259,#260));
#231 = ORIENTED_EDGE('',*,*,#232,.T.);
#232 = EDGE_CURVE('',#24,#83,#233,.T.);
#233 = SURFACE_CURVE('',#234,(#239,#249),.PCURVE_S1.);
#234 = B_SPLINE_CURVE_WITH_KNOTS('',3,(#235,#236,#237,#238),
  .UNSPECIFIED.,.F.,.F.,(4,4),(0.,1.),.PIECEWISE_BEZIER_KNOTS.);
#235 = CARTESIAN_POINT('',(0.644719968239,-4.447670343022E-03,
    -0.999800384045));
#236 = CARTESIAN_POINT('',(0.619264653679,0.862336192971,-0.995631992149
    ));
#237 = CARTESIAN_POINT('',(-0.614477821935,0.866074392707,
    -1.001265197782));
#238 = CARTESIAN_POINT('',(-0.643251240253,-1.826480011611E-03,
    -0.997934410969));
#239 = PCURVE('',#57,#240);
#240 = DEFINITIONAL_REPRESENTATION('',(#241),#248);
#241 = B_SPLINE_CURVE_WITH_KNOTS('',5,(#242,#243,#244,#245,#246,#247),
  .UNSPECIFIED.,.F.,.F.,(6,6),(0.,1.),.PIECEWISE_BEZIER_KNOTS.);
#242 = CARTESIAN_POINT('',(-5.109557796375E-04,2.312197605313E-02));
#243 = CARTESIAN_POINT('',(0.201489858251,2.335117701626E-02));
#244 = CARTESIAN_POINT('',(0.466656283102,2.227737527314E-02));
#245 = CARTESIAN_POINT('',(0.526601719505,2.260336252644E-02));
#246 = CARTESIAN_POINT('',(0.794269510095,2.175066486867E-02));
#247 = CARTESIAN_POINT('',(0.995040966372,2.282793680049E-02));
#248 = ( GEOMETRIC_REPRESENTATION_CONTEXT(2) 
PARAMETRIC_REPRESENTATION_CONTEXT() REPRESENTATION_CONTEXT('2D SPACE',''
  ) );
#249 = PCURVE('',#103,#250);
#250 = DEFINITIONAL_REPRESENTATION('',(#251),#257);
#251 = B_SPLINE_CURVE_WITH_KNOTS('',4,(#252,#253,#254,#255,#256),
  .UNSPECIFIED.,.F.,.F.,(5,5),(0.,1.),.PIECEWISE_BEZIER_KNOTS.);
#252 = CARTESIAN_POINT('',(3.73553975829E-02,0.489968352606));
#253 = CARTESIAN_POINT('',(4.741460970371E-02,0.965911156115));
#254 = CARTESIAN_POINT('',(0.506392397394,1.136663964795));
#255 = CARTESIAN_POINT('',(0.9624217844,0.97188682759));
#256 = CARTESIAN_POINT('',(0.980332767873,0.494905761456));
#257 = ( GEOMETRIC_REPRESENTATION_CONTEXT(2) 
PARAMETRIC_REPRESENTATION_CONTEXT() REPRESENTATION_CONTEXT('2D SPACE',''
  ) );
#258 = ORIENTED_EDGE('',*,*,#129,.T.);
#259 = ORIENTED_EDGE('',*,*,#202,.F.);
#260 = ORIENTED_EDGE('',*,*,#21,.T.);
#261 = ADVANCED_FACE('',(#262),#103,.T.);
#262 = FACE_BOUND('',#263,.F.);
#263 = EDGE_LOOP('',(#264,#265));
#264 = ORIENTED_EDGE('',*,*,#82,.T.);
#265 = ORIENTED_EDGE('',*,*,#232,.T.);
#266 = ( GEOMETRIC_REPRESENTATION_CONTEXT(3) 
GLOBAL_UNCERTAINTY_ASSIGNED_CONTEXT((#270)) GLOBAL_UNIT_ASSIGNED_CONTEXT
((#267,#268,#269)) REPRESENTATION_CONTEXT('Context #1',
  '3D Context with UNIT and UNCERTAINTY') );
#267 = ( LENGTH_UNIT() NAMED_UNIT(*) SI_UNIT(.MILLI.,.METRE.) );
#268 = ( NAMED_UNIT(*) PLANE_ANGLE_UNIT() SI_UNIT($,.RADIAN.) );
#269 = ( NAMED_UNIT(*) SI_UNIT($,.STERADIAN.) SOLID_ANGLE_UNIT() );
#270 = UNCERTAINTY_MEASURE_WITH_UNIT(LENGTH_MEASURE(5.E-02),#267,
  'distance_accuracy_value','confusion accuracy');
#271 = PRODUCT_RELATED_PRODUCT_CATEGORY('detail',$,(#7));
#272 = PRODUCT_CATEGORY_RELATIONSHIP('','',#273,#271);
#273 = PRODUCT_CATEGORY('part',$);
#274 = CC_DESIGN_PERSON_AND_ORGANIZATION_ASSIGNMENT(#275,#278,(#6,#5));
#275 = PERSON_AND_ORGANIZATION(#276,#277);
#276 = PERSON('IP127.0.1,workstation-5','','workstation-5,,,',$,$,$);
#277 = ORGANIZATION('IP127.0.1','Unspecified','');
#278 = PERSON_AND_ORGANIZATION_ROLE('creator');
#279 = CC_DESIGN_PERSON_AND_ORGANIZATION_ASSIGNMENT(#275,#280,(#7));
#280 = PERSON_AND_ORGANIZATION_ROLE('design_owner');
#281 = CC_DESIGN_PERSON_AND_ORGANIZATION_ASSIGNMENT(#275,#282,(#6));
#282 = PERSON_AND_ORGANIZATION_ROLE('design_supplier');
#283 = CC_DESIGN_PERSON_AND_ORGANIZATION_ASSIGNMENT(#275,#284,(#285));
#284 = PERSON_AND_ORGANIZATION_ROLE('classification_officer');
#285 = SECURITY_CLASSIFICATION('','',#286);
#286 = SECURITY_CLASSIFICATION_LEVEL('unclassified');
#287 = CC_DESIGN_SECURITY_CLASSIFICATION(#285,(#6));
#288 = CC_DESIGN_DATE_AND_TIME_ASSIGNMENT(#289,#293,(#5));
#289 = DATE_AND_TIME(#290,#291);
#290 = CALENDAR_DATE(2024,1,12);
#291 = LOCAL_TIME(18,26,$,#292);
#292 = COORDINATED_UNIVERSAL_TIME_OFFSET(5,$,.BEHIND.);
#293 = DATE_TIME_ROLE('creation_date');
#294 = CC_DESIGN_DATE_AND_TIME_ASSIGNMENT(#289,#295,(#285));
#295 = DATE_TIME_ROLE('classification_date');
#296 = CC_DESIGN_APPROVAL(#297,(#6,#5,#285));
#297 = APPROVAL(#298,'');
#298 = APPROVAL_STATUS('not_yet_approved');
#299 = APPROVAL_PERSON_ORGANIZATION(#275,#297,#300);
#300 = APPROVAL_ROLE('approver');
#301 = APPROVAL_DATE_TIME(#289,#297);
ENDSEC;
END-ISO-10303-21;
