ISO-10303-21;
HEADER;
FILE_DESCRIPTION(('Open CASCADE Model'),'2;1');
FILE_NAME('Open CASCADE Shape Model','2024-07-29T16:13:02',('Author'),(
    'Open CASCADE'),'Open CASCADE STEP processor 7.5','Open CASCADE 7.5'
  ,'Unknown');
FILE_SCHEMA(('CONFIG_CONTROL_DESIGN'));
ENDSEC;
DATA;
#1 = APPLICATION_PROTOCOL_DEFINITION('international standard',
  'config_control_design',1994,#2);
#2 = APPLICATION_CONTEXT(
'configuration controlled 3D designs of mechanical parts and assemblies'
  );
#3 = SHAPE_DEFINITION_REPRESENTATION(#4,#10);
#4 = PRODUCT_DEFINITION_SHAPE('','',#5);
#5 = PRODUCT_DEFINITION('design','',#6,#9);
#6 = PRODUCT_DEFINITION_FORMATION_WITH_SPECIFIED_SOURCE('','',#7,
  .NOT_KNOWN.);
#7 = PRODUCT('Open CASCADE STEP translator 7.5 9023',
  'Open CASCADE STEP translator 7.5 9023','',(#8));
#8 = MECHANICAL_CONTEXT('',#2,'mechanical');
#9 = DESIGN_CONTEXT('',#2,'design');
#10 = ADVANCED_BREP_SHAPE_REPRESENTATION('',(#11,#15),#316);
#11 = AXIS2_PLACEMENT_3D('',#12,#13,#14);
#12 = CARTESIAN_POINT('',(0.,0.,0.));
#13 = DIRECTION('',(0.,0.,1.));
#14 = DIRECTION('',(1.,0.,-0.));
#15 = MANIFOLD_SOLID_BREP('',#16);
#16 = CLOSED_SHELL('',(#17,#170,#273,#311));
#17 = ADVANCED_FACE('',(#18),#35,.T.);
#18 = FACE_BOUND('',#19,.F.);
#19 = EDGE_LOOP('',(#20,#126));
#20 = ORIENTED_EDGE('',*,*,#21,.T.);
#21 = EDGE_CURVE('',#22,#24,#26,.T.);
#22 = VERTEX_POINT('',#23);
#23 = CARTESIAN_POINT('',(0.996116235852,-1.698383362964E-03,
    0.1606653817));
#24 = VERTEX_POINT('',#25);
#25 = CARTESIAN_POINT('',(-1.002039556702,-1.440696511418E-02,
    0.170704632998));
#26 = SURFACE_CURVE('',#27,(#34,#80),.PCURVE_S1.);
#27 = B_SPLINE_CURVE_WITH_KNOTS('',5,(#28,#29,#30,#31,#32,#33),
  .UNSPECIFIED.,.F.,.F.,(6,6),(0.,1.),.PIECEWISE_BEZIER_KNOTS.);
#28 = CARTESIAN_POINT('',(0.996116235852,-1.698383362964E-03,
    0.1606653817));
#29 = CARTESIAN_POINT('',(0.869517433606,-0.445755900598,0.174174226549)
  );
#30 = CARTESIAN_POINT('',(1.483365461664E-03,-0.471909504994,
    0.137221291869));
#31 = CARTESIAN_POINT('',(1.713703690851E-03,-0.425402425937,
    0.195208034505));
#32 = CARTESIAN_POINT('',(-0.858033871886,-0.458950582098,0.145210576467
    ));
#33 = CARTESIAN_POINT('',(-1.002039556702,-1.440696511418E-02,
    0.170704632998));
#34 = PCURVE('',#35,#52);
#35 = B_SPLINE_SURFACE_WITH_KNOTS('',3,3,(
    (#36,#37,#38,#39)
    ,(#40,#41,#42,#43)
    ,(#44,#45,#46,#47)
    ,(#48,#49,#50,#51
    )),.UNSPECIFIED.,.F.,.F.,.F.,(4,4),(4,4),(0.,1.),(0.,1.),
  .PIECEWISE_BEZIER_KNOTS.);
#36 = CARTESIAN_POINT('',(1.062252640724,0.45806479454,0.165702939034));
#37 = CARTESIAN_POINT('',(1.062303037696,0.147830331604,0.160838861406)
  );
#38 = CARTESIAN_POINT('',(1.056100962752,-0.163732172356,0.166425239468)
  );
#39 = CARTESIAN_POINT('',(1.055416703224,-0.478702783585,0.165277600288)
  );
#40 = CARTESIAN_POINT('',(0.35327792064,0.472022063304,0.15933159071));
#41 = CARTESIAN_POINT('',(0.353066156932,0.163326188985,0.167654707174)
  );
#42 = CARTESIAN_POINT('',(0.361238014112,-0.153434021989,0.17233814107)
  );
#43 = CARTESIAN_POINT('',(0.353800395038,-0.457999896444,0.161581719821)
  );
#44 = CARTESIAN_POINT('',(-0.350972081413,0.478014620673,0.169259871278)
  );
#45 = CARTESIAN_POINT('',(-0.344577054938,0.164834258351,0.162137240841)
  );
#46 = CARTESIAN_POINT('',(-0.354743404759,-0.143092039189,0.168896031211
    ));
#47 = CARTESIAN_POINT('',(-0.347931594416,-0.455562871521,0.168968241089
    ));
#48 = CARTESIAN_POINT('',(-1.052005171776,0.46490073204,0.156585812569)
  );
#49 = CARTESIAN_POINT('',(-1.058850435058,0.154281628536,0.160821365023)
  );
#50 = CARTESIAN_POINT('',(-1.048578165816,-0.154498156396,0.15509305963)
  );
#51 = CARTESIAN_POINT('',(-1.052981734276,-0.465030908585,0.157859921455
    ));
#52 = DEFINITIONAL_REPRESENTATION('',(#53),#79);
#53 = B_SPLINE_CURVE_WITH_KNOTS('',3,(#54,#55,#56,#57,#58,#59,#60,#61,
    #62,#63,#64,#65,#66,#67,#68,#69,#70,#71,#72,#73,#74,#75,#76,#77,#78)
  ,.UNSPECIFIED.,.F.,.F.,(4,1,1,1,1,1,1,1,1,1,1,1,1,1,1,1,1,1,1,1,1,1,4)
  ,(0.,4.545454545455E-02,9.090909090909E-02,0.136363636364,
    0.181818181818,0.227272727273,0.272727272727,0.318181818182,
    0.363636363636,0.409090909091,0.454545454545,0.5,0.545454545455,
    0.590909090909,0.636363636364,0.681818181818,0.727272727273,
    0.772727272727,0.818181818182,0.863636363636,0.909090909091,
    0.954545454545,1.),.QUASI_UNIFORM_KNOTS.);
#54 = CARTESIAN_POINT('',(2.988693552522E-02,0.493988519431));
#55 = CARTESIAN_POINT('',(3.434739007579E-02,0.530109925767));
#56 = CARTESIAN_POINT('',(4.79351230063E-02,0.596401305895));
#57 = CARTESIAN_POINT('',(7.917191338016E-02,0.679802508094));
#58 = CARTESIAN_POINT('',(0.117859890852,0.749047866438));
#59 = CARTESIAN_POINT('',(0.161500583337,0.805801824276));
#60 = CARTESIAN_POINT('',(0.208142463858,0.85156437199));
#61 = CARTESIAN_POINT('',(0.256390097759,0.887672173976));
#62 = CARTESIAN_POINT('',(0.305297063548,0.915316760894));
#63 = CARTESIAN_POINT('',(0.354289364451,0.935543369813));
#64 = CARTESIAN_POINT('',(0.403086348279,0.949237800696));
#65 = CARTESIAN_POINT('',(0.451627614406,0.957104914046));
#66 = CARTESIAN_POINT('',(0.500001194163,0.959644776431));
#67 = CARTESIAN_POINT('',(0.548372247786,0.957129987367));
#68 = CARTESIAN_POINT('',(0.596911526017,0.949585875827));
#69 = CARTESIAN_POINT('',(0.645723575903,0.936773783214));
#70 = CARTESIAN_POINT('',(0.69477467636,0.918176956224));
#71 = CARTESIAN_POINT('',(0.743819823945,0.892988295902));
#72 = CARTESIAN_POINT('',(0.792328132191,0.860099943916));
#73 = CARTESIAN_POINT('',(0.839402228741,0.81809412976));
#74 = CARTESIAN_POINT('',(0.883699591823,0.765241488188));
#75 = CARTESIAN_POINT('',(0.923324743233,0.699493358339));
#76 = CARTESIAN_POINT('',(0.955833959443,0.618528266955));
#77 = CARTESIAN_POINT('',(0.970546056498,0.552590673472));
#78 = CARTESIAN_POINT('',(0.975649709344,0.516196788042));
#79 = ( GEOMETRIC_REPRESENTATION_CONTEXT(2) 
PARAMETRIC_REPRESENTATION_CONTEXT() REPRESENTATION_CONTEXT('2D SPACE',''
  ) );
#80 = PCURVE('',#81,#98);
#81 = B_SPLINE_SURFACE_WITH_KNOTS('',3,3,(
    (#82,#83,#84,#85)
    ,(#86,#87,#88,#89)
    ,(#90,#91,#92,#93)
    ,(#94,#95,#96,#97
    )),.UNSPECIFIED.,.F.,.F.,.F.,(4,4),(4,4),(0.,1.),(0.,1.),
  .PIECEWISE_BEZIER_KNOTS.);
#82 = CARTESIAN_POINT('',(1.061459779739,9.252878278494E-02,
    0.17294023931));
#83 = CARTESIAN_POINT('',(1.061743582347,8.944311882249E-02,
    4.512037420874E-02));
#84 = CARTESIAN_POINT('',(1.060832756411,6.470209908134E-02,
    -6.134446319599E-02));
#85 = CARTESIAN_POINT('',(1.053647279739,7.421823590994E-02,
    -0.188021674752));
#86 = CARTESIAN_POINT('',(0.716439819952,-0.587290086509,0.169212856578)
  );
#87 = CARTESIAN_POINT('',(0.716253010149,-0.599964652538,
    5.431227009407E-02));
#88 = CARTESIAN_POINT('',(0.700822376176,-0.603279304523,
    -6.527622684189E-02));
#89 = CARTESIAN_POINT('',(0.700059224929,-0.613571059383,-0.188385772585
    ));
#90 = CARTESIAN_POINT('',(-0.715600806063,-0.606876020682,0.184885826329
    ));
#91 = CARTESIAN_POINT('',(-0.727676125523,-0.615335213046,
    7.104001777857E-02));
#92 = CARTESIAN_POINT('',(-0.71255877373,-0.612959473652,
    -6.17970117808E-02));
#93 = CARTESIAN_POINT('',(-0.717457030257,-0.646983578046,
    -0.151467378024));
#94 = CARTESIAN_POINT('',(-1.048891782761,9.204050153494E-02,
    0.166348442435));
#95 = CARTESIAN_POINT('',(-1.063477301246,7.803489564509E-02,
    4.75983626556E-02));
#96 = CARTESIAN_POINT('',(-1.0543028809,6.74895124707E-02,
    -6.493939614708E-02));
#97 = CARTESIAN_POINT('',(-1.063540220261,6.945749372244E-02,
    -0.195834174752));
#98 = DEFINITIONAL_REPRESENTATION('',(#99),#125);
#99 = B_SPLINE_CURVE_WITH_KNOTS('',3,(#100,#101,#102,#103,#104,#105,#106
    ,#107,#108,#109,#110,#111,#112,#113,#114,#115,#116,#117,#118,#119,
    #120,#121,#122,#123,#124),.UNSPECIFIED.,.F.,.F.,(4,1,1,1,1,1,1,1,1,1
    ,1,1,1,1,1,1,1,1,1,1,1,1,4),(0.,4.545454545455E-02,
    9.090909090909E-02,0.136363636364,0.181818181818,0.227272727273,
    0.272727272727,0.318181818182,0.363636363636,0.409090909091,
    0.454545454545,0.5,0.545454545455,0.590909090909,0.636363636364,
    0.681818181818,0.727272727273,0.772727272727,0.818181818182,
    0.863636363636,0.909090909091,0.954545454545,1.),
  .QUASI_UNIFORM_KNOTS.);
#100 = CARTESIAN_POINT('',(5.03301679942E-02,3.105803040054E-02));
#101 = CARTESIAN_POINT('',(6.473945235902E-02,2.906367821583E-02));
#102 = CARTESIAN_POINT('',(9.308789975321E-02,2.678667861377E-02));
#103 = CARTESIAN_POINT('',(0.13488099439,2.684458439493E-02));
#104 = CARTESIAN_POINT('',(0.176966877418,2.848395393755E-02));
#105 = CARTESIAN_POINT('',(0.219172393155,3.061865888621E-02));
#106 = CARTESIAN_POINT('',(0.261186400605,3.252995725148E-02));
#107 = CARTESIAN_POINT('',(0.302659015934,3.382658705416E-02));
#108 = CARTESIAN_POINT('',(0.343373251597,3.434017588088E-02));
#109 = CARTESIAN_POINT('',(0.383269915527,3.408074583615E-02));
#110 = CARTESIAN_POINT('',(0.422438938308,3.319999982632E-02));
#111 = CARTESIAN_POINT('',(0.461085929186,3.195907291164E-02));
#112 = CARTESIAN_POINT('',(0.499492808476,3.069220243066E-02));
#113 = CARTESIAN_POINT('',(0.537976374858,2.976492380592E-02));
#114 = CARTESIAN_POINT('',(0.576846409756,2.952569847573E-02));
#115 = CARTESIAN_POINT('',(0.616363107886,3.024948865669E-02));
#116 = CARTESIAN_POINT('',(0.656693780503,3.207041437844E-02));
#117 = CARTESIAN_POINT('',(0.697871238576,3.489751059789E-02));
#118 = CARTESIAN_POINT('',(0.739760125604,3.830783983142E-02));
#119 = CARTESIAN_POINT('',(0.782055683425,4.139824802052E-02));
#120 = CARTESIAN_POINT('',(0.824331619847,4.262290366525E-02));
#121 = CARTESIAN_POINT('',(0.866255746701,3.949097570996E-02));
#122 = CARTESIAN_POINT('',(0.907732414016,2.857143365111E-02));
#123 = CARTESIAN_POINT('',(0.935898979081,1.215361695521E-02));
#124 = CARTESIAN_POINT('',(0.950251884497,7.920851237175E-04));
#125 = ( GEOMETRIC_REPRESENTATION_CONTEXT(2) 
PARAMETRIC_REPRESENTATION_CONTEXT() REPRESENTATION_CONTEXT('2D SPACE',''
  ) );
#126 = ORIENTED_EDGE('',*,*,#127,.T.);
#127 = EDGE_CURVE('',#24,#22,#128,.T.);
#128 = SURFACE_CURVE('',#129,(#134,#143),.PCURVE_S1.);
#129 = B_SPLINE_CURVE_WITH_KNOTS('',3,(#130,#131,#132,#133),
  .UNSPECIFIED.,.F.,.F.,(4,4),(0.,1.),.PIECEWISE_BEZIER_KNOTS.);
#130 = CARTESIAN_POINT('',(-1.002039556702,-1.440696511418E-02,
    0.170704632998));
#131 = CARTESIAN_POINT('',(-0.839741572985,0.568394570927,0.156575283933
    ));
#132 = CARTESIAN_POINT('',(0.834647907967,0.587889107979,0.162014372185)
  );
#133 = CARTESIAN_POINT('',(0.996116235852,-1.698383362964E-03,
    0.1606653817));
#134 = PCURVE('',#35,#135);
#135 = DEFINITIONAL_REPRESENTATION('',(#136),#142);
#136 = B_SPLINE_CURVE_WITH_KNOTS('',4,(#137,#138,#139,#140,#141),
  .UNSPECIFIED.,.F.,.F.,(5,5),(0.,1.),.PIECEWISE_BEZIER_KNOTS.);
#137 = CARTESIAN_POINT('',(0.975649709344,0.516196788042));
#138 = CARTESIAN_POINT('',(0.916637206802,4.758879357791E-02));
#139 = CARTESIAN_POINT('',(0.501831917223,-0.10217478362));
#140 = CARTESIAN_POINT('',(8.921172170155E-02,2.41902905716E-02));
#141 = CARTESIAN_POINT('',(2.988693552522E-02,0.493988519431));
#142 = ( GEOMETRIC_REPRESENTATION_CONTEXT(2) 
PARAMETRIC_REPRESENTATION_CONTEXT() REPRESENTATION_CONTEXT('2D SPACE',''
  ) );
#143 = PCURVE('',#144,#161);
#144 = B_SPLINE_SURFACE_WITH_KNOTS('',3,3,(
    (#145,#146,#147,#148)
    ,(#149,#150,#151,#152)
    ,(#153,#154,#155,#156)
    ,(#157,#158,#159,#160
    )),.UNSPECIFIED.,.F.,.F.,.F.,(4,4),(4,4),(0.,1.),(0.,1.),
  .PIECEWISE_BEZIER_KNOTS.);
#145 = CARTESIAN_POINT('',(-1.038150310516,-9.969954192638E-02,
    0.158614531159));
#146 = CARTESIAN_POINT('',(-1.046032465939,-0.105224367635,
    4.556731845066E-02));
#147 = CARTESIAN_POINT('',(-1.050632412172,-9.18103407059E-02,
    -7.475250056346E-02));
#148 = CARTESIAN_POINT('',(-1.048892498016,-0.115080401301,
    -0.188309296966));
#149 = CARTESIAN_POINT('',(-0.76183814025,0.631410761399,0.163154473061)
  );
#150 = CARTESIAN_POINT('',(-0.768047190124,0.631208198096,
    4.183232830211E-02));
#151 = CARTESIAN_POINT('',(-0.742865000888,0.603100730718,
    -8.357517757745E-02));
#152 = CARTESIAN_POINT('',(-0.76375205227,0.620275783078,-0.185204939792
    ));
#153 = CARTESIAN_POINT('',(0.759293260073,0.63085585109,0.153287533478)
  );
#154 = CARTESIAN_POINT('',(0.750552710735,0.622251454777,
    5.35806458001E-02));
#155 = CARTESIAN_POINT('',(0.731980906998,0.63275076063,
    -6.065733654698E-02));
#156 = CARTESIAN_POINT('',(0.741882187977,0.621750815785,-0.19791177757)
  );
#157 = CARTESIAN_POINT('',(1.039974689484,-8.846907317638E-02,
    0.170577421784));
#158 = CARTESIAN_POINT('',(1.049788499248,-9.619891973548E-02,
    4.358035452763E-02));
#159 = CARTESIAN_POINT('',(1.043041139756,-0.102720481101,
    -6.814711071106E-02));
#160 = CARTESIAN_POINT('',(1.038021564484,-0.104826495051,
    -0.182205781341));
#161 = DEFINITIONAL_REPRESENTATION('',(#162),#169);
#162 = B_SPLINE_CURVE_WITH_KNOTS('',5,(#163,#164,#165,#166,#167,#168),
  .UNSPECIFIED.,.F.,.F.,(6,6),(0.,1.),.PIECEWISE_BEZIER_KNOTS.);
#163 = CARTESIAN_POINT('',(3.968516992922E-02,-1.319003934404E-02));
#164 = CARTESIAN_POINT('',(0.194618282623,-0.138407740861));
#165 = CARTESIAN_POINT('',(0.345199992723,0.190129167816));
#166 = CARTESIAN_POINT('',(0.657560342999,-0.103632804655));
#167 = CARTESIAN_POINT('',(0.7968951261,5.47579514414E-03));
#168 = CARTESIAN_POINT('',(0.957270944801,2.106827266787E-02));
#169 = ( GEOMETRIC_REPRESENTATION_CONTEXT(2) 
PARAMETRIC_REPRESENTATION_CONTEXT() REPRESENTATION_CONTEXT('2D SPACE',''
  ) );
#170 = ADVANCED_FACE('',(#171),#144,.T.);
#171 = FACE_BOUND('',#172,.F.);
#172 = EDGE_LOOP('',(#173,#228,#251,#252));
#173 = ORIENTED_EDGE('',*,*,#174,.T.);
#174 = EDGE_CURVE('',#175,#177,#179,.T.);
#175 = VERTEX_POINT('',#176);
#176 = CARTESIAN_POINT('',(-1.00345595181,-6.356205480794E-03,
    -0.155977755785));
#177 = VERTEX_POINT('',#178);
#178 = CARTESIAN_POINT('',(0.995884840687,4.063518174614E-03,
    -0.165976316979));
#179 = SURFACE_CURVE('',#180,(#185,#195),.PCURVE_S1.);
#180 = B_SPLINE_CURVE_WITH_KNOTS('',3,(#181,#182,#183,#184),
  .UNSPECIFIED.,.F.,.F.,(4,4),(0.,1.),.PIECEWISE_BEZIER_KNOTS.);
#181 = CARTESIAN_POINT('',(-1.00345595181,-6.356205480794E-03,
    -0.155977755785));
#182 = CARTESIAN_POINT('',(-0.836038627073,0.591971438273,
    -0.165578922752));
#183 = CARTESIAN_POINT('',(0.82174632625,0.603462069081,-0.158377336548)
  );
#184 = CARTESIAN_POINT('',(0.995884840687,4.063518174614E-03,
    -0.165976316979));
#185 = PCURVE('',#144,#186);
#186 = DEFINITIONAL_REPRESENTATION('',(#187),#194);
#187 = B_SPLINE_CURVE_WITH_KNOTS('',5,(#188,#189,#190,#191,#192,#193),
  .UNSPECIFIED.,.F.,.F.,(6,6),(0.,1.),.PIECEWISE_BEZIER_KNOTS.);
#188 = CARTESIAN_POINT('',(4.834744761691E-02,0.904770445999));
#189 = CARTESIAN_POINT('',(0.209877224926,0.90622097156));
#190 = CARTESIAN_POINT('',(0.336341829312,0.936100621617));
#191 = CARTESIAN_POINT('',(0.667452494318,0.920643917075));
#192 = CARTESIAN_POINT('',(0.7893731737,0.90645422721));
#193 = CARTESIAN_POINT('',(0.950636500295,0.946284266017));
#194 = ( GEOMETRIC_REPRESENTATION_CONTEXT(2) 
PARAMETRIC_REPRESENTATION_CONTEXT() REPRESENTATION_CONTEXT('2D SPACE',''
  ) );
#195 = PCURVE('',#196,#213);
#196 = B_SPLINE_SURFACE_WITH_KNOTS('',3,3,(
    (#197,#198,#199,#200)
    ,(#201,#202,#203,#204)
    ,(#205,#206,#207,#208)
    ,(#209,#210,#211,#212
    )),.UNSPECIFIED.,.F.,.F.,.F.,(4,4),(4,4),(0.,1.),(0.,1.),
  .PIECEWISE_BEZIER_KNOTS.);
#197 = CARTESIAN_POINT('',(-1.063465237617,0.433950811625,
    -0.158067196608));
#198 = CARTESIAN_POINT('',(-1.065261884185,0.141142269057,
    -0.163403878812));
#199 = CARTESIAN_POINT('',(-1.064169330271,-0.159354460702,
    -0.166218367333));
#200 = CARTESIAN_POINT('',(-1.067371487617,-0.455697625875,
    -0.169755429029));
#201 = CARTESIAN_POINT('',(-0.36670640709,0.437178449906,-0.161236903833
    ));
#202 = CARTESIAN_POINT('',(-0.359945868138,0.137750374144,
    -0.157236117623));
#203 = CARTESIAN_POINT('',(-0.364008401885,-0.163337995796,
    -0.17010019258));
#204 = CARTESIAN_POINT('',(-0.362166357259,-0.457762259843,
    -0.165969488253));
#205 = CARTESIAN_POINT('',(0.347105682573,0.433705616183,-0.160201933769
    ));
#206 = CARTESIAN_POINT('',(0.332781914625,0.127542353911,-0.171891402074
    ));
#207 = CARTESIAN_POINT('',(0.347981994578,-0.156581362473,
    -0.158198403394));
#208 = CARTESIAN_POINT('',(0.331677831619,-0.457309516365,
    -0.174222902558));
#209 = CARTESIAN_POINT('',(1.039073824883,0.422720342875,-0.159985989332
    ));
#210 = CARTESIAN_POINT('',(1.045752293814,0.134091324824,-0.166775620611
    ));
#211 = CARTESIAN_POINT('',(1.038167768433,-0.169303242931,
    -0.165922835929));
#212 = CARTESIAN_POINT('',(1.043956637383,-0.464730829,-0.168263882399)
  );
#213 = DEFINITIONAL_REPRESENTATION('',(#214),#227);
#214 = B_SPLINE_CURVE_WITH_KNOTS('',6,(#215,#216,#217,#218,#219,#220,
    #221,#222,#223,#224,#225,#226),.UNSPECIFIED.,.F.,.F.,(7,5,7),(0.,0.5
    ,1.),.UNSPECIFIED.);
#215 = CARTESIAN_POINT('',(2.915973780116E-02,0.496053675816));
#216 = CARTESIAN_POINT('',(4.888179406129E-02,0.328359246798));
#217 = CARTESIAN_POINT('',(0.104071236778,0.190831262616));
#218 = CARTESIAN_POINT('',(0.185989072578,8.800644357384E-02));
#219 = CARTESIAN_POINT('',(0.285710648021,2.174187898413E-02));
#220 = CARTESIAN_POINT('',(0.394125649592,-8.784972833861E-03));
#221 = CARTESIAN_POINT('',(0.609750557822,-5.367596272481E-03));
#222 = CARTESIAN_POINT('',(0.718778390646,-2.471023017542E-02));
#223 = CARTESIAN_POINT('',(0.819356901748,0.1047945969));
#224 = CARTESIAN_POINT('',(0.901622130566,0.161197638418));
#225 = CARTESIAN_POINT('',(0.957299745789,0.307390676332));
#226 = CARTESIAN_POINT('',(0.97814460583,0.475095660753));
#227 = ( GEOMETRIC_REPRESENTATION_CONTEXT(2) 
PARAMETRIC_REPRESENTATION_CONTEXT() REPRESENTATION_CONTEXT('2D SPACE',''
  ) );
#228 = ORIENTED_EDGE('',*,*,#229,.F.);
#229 = EDGE_CURVE('',#22,#177,#230,.T.);
#230 = SURFACE_CURVE('',#231,(#235,#243),.PCURVE_S1.);
#231 = B_SPLINE_CURVE_WITH_KNOTS('',2,(#232,#233,#234),.UNSPECIFIED.,.F.
  ,.F.,(3,3),(0.,1.),.PIECEWISE_BEZIER_KNOTS.);
#232 = CARTESIAN_POINT('',(0.996116235852,-1.698383362964E-03,
    0.1606653817));
#233 = CARTESIAN_POINT('',(0.99520421174,1.36219518804E-03,
    -2.655970097127E-03));
#234 = CARTESIAN_POINT('',(0.995884840687,4.063518174614E-03,
    -0.165976316979));
#235 = PCURVE('',#144,#236);
#236 = DEFINITIONAL_REPRESENTATION('',(#237),#242);
#237 = B_SPLINE_CURVE_WITH_KNOTS('',3,(#238,#239,#240,#241),
  .UNSPECIFIED.,.F.,.F.,(4,4),(0.,1.),.PIECEWISE_BEZIER_KNOTS.);
#238 = CARTESIAN_POINT('',(0.957270944801,2.106827266787E-02));
#239 = CARTESIAN_POINT('',(0.955162888336,0.315050316469));
#240 = CARTESIAN_POINT('',(0.952863823347,0.635669728461));
#241 = CARTESIAN_POINT('',(0.950636500291,0.946284266017));
#242 = ( GEOMETRIC_REPRESENTATION_CONTEXT(2) 
PARAMETRIC_REPRESENTATION_CONTEXT() REPRESENTATION_CONTEXT('2D SPACE',''
  ) );
#243 = PCURVE('',#81,#244);
#244 = DEFINITIONAL_REPRESENTATION('',(#245),#250);
#245 = B_SPLINE_CURVE_WITH_KNOTS('',3,(#246,#247,#248,#249),
  .UNSPECIFIED.,.F.,.F.,(4,4),(0.,1.),.PIECEWISE_BEZIER_KNOTS.);
#246 = CARTESIAN_POINT('',(5.03301679942E-02,3.105803040054E-02));
#247 = CARTESIAN_POINT('',(4.677919927838E-02,0.321395756963));
#248 = CARTESIAN_POINT('',(4.272255607106E-02,0.653078928668));
#249 = CARTESIAN_POINT('',(3.916491611796E-02,0.943962115363));
#250 = ( GEOMETRIC_REPRESENTATION_CONTEXT(2) 
PARAMETRIC_REPRESENTATION_CONTEXT() REPRESENTATION_CONTEXT('2D SPACE',''
  ) );
#251 = ORIENTED_EDGE('',*,*,#127,.F.);
#252 = ORIENTED_EDGE('',*,*,#253,.F.);
#253 = EDGE_CURVE('',#175,#24,#254,.T.);
#254 = SURFACE_CURVE('',#255,(#259,#265),.PCURVE_S1.);
#255 = B_SPLINE_CURVE_WITH_KNOTS('',2,(#256,#257,#258),.UNSPECIFIED.,.F.
  ,.F.,(3,3),(0.,1.),.PIECEWISE_BEZIER_KNOTS.);
#256 = CARTESIAN_POINT('',(-1.00345595181,-6.356205480794E-03,
    -0.155977755785));
#257 = CARTESIAN_POINT('',(-1.002567314856,-9.502062833726E-03,
    7.380098144806E-03));
#258 = CARTESIAN_POINT('',(-1.002039556702,-1.440696511418E-02,
    0.170704632998));
#259 = PCURVE('',#144,#260);
#260 = DEFINITIONAL_REPRESENTATION('',(#261),#264);
#261 = B_SPLINE_CURVE_WITH_KNOTS('',1,(#262,#263),.UNSPECIFIED.,.F.,.F.,
  (2,2),(0.,1.),.PIECEWISE_BEZIER_KNOTS.);
#262 = CARTESIAN_POINT('',(4.834744761691E-02,0.904770445999));
#263 = CARTESIAN_POINT('',(3.968516992922E-02,-1.319003934404E-02));
#264 = ( GEOMETRIC_REPRESENTATION_CONTEXT(2) 
PARAMETRIC_REPRESENTATION_CONTEXT() REPRESENTATION_CONTEXT('2D SPACE',''
  ) );
#265 = PCURVE('',#81,#266);
#266 = DEFINITIONAL_REPRESENTATION('',(#267),#272);
#267 = B_SPLINE_CURVE_WITH_KNOTS('',3,(#268,#269,#270,#271),
  .UNSPECIFIED.,.F.,.F.,(4,4),(0.,1.),.PIECEWISE_BEZIER_KNOTS.);
#268 = CARTESIAN_POINT('',(0.959354475267,0.905435135631));
#269 = CARTESIAN_POINT('',(0.956430254109,0.61481717689));
#270 = CARTESIAN_POINT('',(0.953300326443,0.303755482207));
#271 = CARTESIAN_POINT('',(0.950251884497,7.920851237175E-04));
#272 = ( GEOMETRIC_REPRESENTATION_CONTEXT(2) 
PARAMETRIC_REPRESENTATION_CONTEXT() REPRESENTATION_CONTEXT('2D SPACE',''
  ) );
#273 = ADVANCED_FACE('',(#274),#81,.T.);
#274 = FACE_BOUND('',#275,.T.);
#275 = EDGE_LOOP('',(#276,#277,#278,#310));
#276 = ORIENTED_EDGE('',*,*,#21,.T.);
#277 = ORIENTED_EDGE('',*,*,#253,.F.);
#278 = ORIENTED_EDGE('',*,*,#279,.F.);
#279 = EDGE_CURVE('',#177,#175,#280,.T.);
#280 = SURFACE_CURVE('',#281,(#286,#296),.PCURVE_S1.);
#281 = B_SPLINE_CURVE_WITH_KNOTS('',3,(#282,#283,#284,#285),
  .UNSPECIFIED.,.F.,.F.,(4,4),(0.,1.),.PIECEWISE_BEZIER_KNOTS.);
#282 = CARTESIAN_POINT('',(0.995884840687,4.063518174614E-03,
    -0.165976316979));
#283 = CARTESIAN_POINT('',(0.872784111411,-0.637848624069,
    -0.166707130444));
#284 = CARTESIAN_POINT('',(-0.854753232319,-0.625907153611,
    -0.188193017683));
#285 = CARTESIAN_POINT('',(-1.00345595181,-6.356205480794E-03,
    -0.155977755785));
#286 = PCURVE('',#81,#287);
#287 = DEFINITIONAL_REPRESENTATION('',(#288),#295);
#288 = B_SPLINE_CURVE_WITH_KNOTS('',5,(#289,#290,#291,#292,#293,#294),
  .UNSPECIFIED.,.F.,.F.,(6,6),(0.,1.),.PIECEWISE_BEZIER_KNOTS.);
#289 = CARTESIAN_POINT('',(3.916491611796E-02,0.943962115363));
#290 = CARTESIAN_POINT('',(0.209308786829,0.919047117953));
#291 = CARTESIAN_POINT('',(0.313196624116,1.012830453845));
#292 = CARTESIAN_POINT('',(0.667488597124,1.046587990075));
#293 = CARTESIAN_POINT('',(0.795452455912,1.015251893549));
#294 = CARTESIAN_POINT('',(0.959354475267,0.905435135631));
#295 = ( GEOMETRIC_REPRESENTATION_CONTEXT(2) 
PARAMETRIC_REPRESENTATION_CONTEXT() REPRESENTATION_CONTEXT('2D SPACE',''
  ) );
#296 = PCURVE('',#196,#297);
#297 = DEFINITIONAL_REPRESENTATION('',(#298),#309);
#298 = B_SPLINE_CURVE_WITH_KNOTS('',5,(#299,#300,#301,#302,#303,#304,
    #305,#306,#307,#308),.UNSPECIFIED.,.F.,.F.,(6,4,6),(0.,0.5,1.),
  .UNSPECIFIED.);
#299 = CARTESIAN_POINT('',(0.97814460583,0.475095660753));
#300 = CARTESIAN_POINT('',(0.960812436673,0.691259634903));
#301 = CARTESIAN_POINT('',(0.885355088329,0.84565776316));
#302 = CARTESIAN_POINT('',(0.774607210789,0.976976316968));
#303 = CARTESIAN_POINT('',(0.64211104037,1.011374859222));
#304 = CARTESIAN_POINT('',(0.377222330933,1.010292333987));
#305 = CARTESIAN_POINT('',(0.242341929699,0.984125334826));
#306 = CARTESIAN_POINT('',(0.128351470781,0.850160779959));
#307 = CARTESIAN_POINT('',(5.052612801346E-02,0.704288689032));
#308 = CARTESIAN_POINT('',(2.915973780116E-02,0.496053675816));
#309 = ( GEOMETRIC_REPRESENTATION_CONTEXT(2) 
PARAMETRIC_REPRESENTATION_CONTEXT() REPRESENTATION_CONTEXT('2D SPACE',''
  ) );
#310 = ORIENTED_EDGE('',*,*,#229,.F.);
#311 = ADVANCED_FACE('',(#312),#196,.T.);
#312 = FACE_BOUND('',#313,.T.);
#313 = EDGE_LOOP('',(#314,#315));
#314 = ORIENTED_EDGE('',*,*,#279,.T.);
#315 = ORIENTED_EDGE('',*,*,#174,.T.);
#316 = ( GEOMETRIC_REPRESENTATION_CONTEXT(3) 
GLOBAL_UNCERTAINTY_ASSIGNED_CONTEXT((#320)) GLOBAL_UNIT_ASSIGNED_CONTEXT
((#317,#318,#319)) REPRESENTATION_CONTEXT('Context #1',
  '3D Context with UNIT and UNCERTAINTY') );
#317 = ( LENGTH_UNIT() NAMED_UNIT(*) SI_UNIT(.MILLI.,.METRE.) );
#318 = ( NAMED_UNIT(*) PLANE_ANGLE_UNIT() SI_UNIT($,.RADIAN.) );
#319 = ( NAMED_UNIT(*) SI_UNIT($,.STERADIAN.) SOLID_ANGLE_UNIT() );
#320 = UNCERTAINTY_MEASURE_WITH_UNIT(LENGTH_MEASURE(5.E-02),#317,
  'distance_accuracy_value','confusion accuracy');
#321 = PRODUCT_RELATED_PRODUCT_CATEGORY('detail',$,(#7));
#322 = PRODUCT_CATEGORY_RELATIONSHIP('','',#323,#321);
#323 = PRODUCT_CATEGORY('part',$);
#324 = CC_DESIGN_PERSON_AND_ORGANIZATION_ASSIGNMENT(#325,#328,(#6,#5));
#325 = PERSON_AND_ORGANIZATION(#326,#327);
#326 = PERSON('IP127.0.1,workstation-5','','workstation-5,,,',$,$,$);
#327 = ORGANIZATION('IP127.0.1','Unspecified','');
#328 = PERSON_AND_ORGANIZATION_ROLE('creator');
#329 = CC_DESIGN_PERSON_AND_ORGANIZATION_ASSIGNMENT(#325,#330,(#7));
#330 = PERSON_AND_ORGANIZATION_ROLE('design_owner');
#331 = CC_DESIGN_PERSON_AND_ORGANIZATION_ASSIGNMENT(#325,#332,(#6));
#332 = PERSON_AND_ORGANIZATION_ROLE('design_supplier');
#333 = CC_DESIGN_PERSON_AND_ORGANIZATION_ASSIGNMENT(#325,#334,(#335));
#334 = PERSON_AND_ORGANIZATION_ROLE('classification_officer');
#335 = SECURITY_CLASSIFICATION('','',#336);
#336 = SECURITY_CLASSIFICATION_LEVEL('unclassified');
#337 = CC_DESIGN_SECURITY_CLASSIFICATION(#335,(#6));
#338 = CC_DESIGN_DATE_AND_TIME_ASSIGNMENT(#339,#343,(#5));
#339 = DATE_AND_TIME(#340,#341);
#340 = CALENDAR_DATE(2024,27,7);
#341 = LOCAL_TIME(15,14,$,#342);
#342 = COORDINATED_UNIVERSAL_TIME_OFFSET(5,$,.BEHIND.);
#343 = DATE_TIME_ROLE('creation_date');
#344 = CC_DESIGN_DATE_AND_TIME_ASSIGNMENT(#339,#345,(#335));
#345 = DATE_TIME_ROLE('classification_date');
#346 = CC_DESIGN_APPROVAL(#347,(#6,#5,#335));
#347 = APPROVAL(#348,'');
#348 = APPROVAL_STATUS('not_yet_approved');
#349 = APPROVAL_PERSON_ORGANIZATION(#325,#347,#350);
#350 = APPROVAL_ROLE('approver');
#351 = APPROVAL_DATE_TIME(#339,#347);
ENDSEC;
END-ISO-10303-21;
